  0
SECTION
  2
HEADER
  9
$ACADVER
  1
AC1006
  9
$AXISMODE
 70
     0
  9
$AXISUNIT
 10
0.0625
 20
0.0625
  9
$CECOLOR
 62
0
  9
$CELTYPE
  6
CONTINUOUS
  9
$CLAYER
  8
LAYER1
  9
$EXTMIN
 10
0
 20
0
  9
$EXTMAX
 10
34.7812
 20
10.8784
  9
$LIMMIN
 10
0
 20
0
  9
$LIMMAX
 10
34.7812
 20
10.8784
  9
$GRIDMODE
 70
     0
  9
$GRIDUNIT
 10
0.125
 20
0.125
  9
$MIRRTEXT
 70
     1
  9
$SNAPMODE
 70
     1
  9
$SNAPUNIT
 10
0.125
 20
0
  9
$SNAPSTYLE
 70
     0
  9
$SPLINESEGS
 70
     8
  9
$SPLINETYPE
 70
     6
  0
ENDSEC
  0
SECTION
  2
TABLES
  0TABLE  2VPORT 70     2  0VPORT  2*ACTIVE 70     0 100.0 200.0 111.0 211.0 1213.01087 224.5 130.0 230.0 141.0 241.0 150.0 250.0 160.0 260.0 361.0 170.0 270.0 370.0 409.0 412.891304 4250.0 430.0 440.0 500.0 510.0 71     0 72   100 73     1 74     1 75     0 76     0 77     0 78     0  0ENDTAB
  0
TABLE
  2
LTYPE
 70
     1
  0
LTYPE
  2
CONTINUOUS
 70
    64
  3
Descriptive Text
 72
    65
 73
     0
 40
0
  0
ENDTAB
  0
TABLE
  2
LAYER
 70
     1
  0
LAYER
  2
LAYER1
 70
     0
 62
     7
  6
CONTINUOUS
  0
ENDTAB
  0TABLE  2STYLE 70     1  0STYLE  2STANDARD 70     0 400.0 411.0 500.0 71     0 420.2  3txt  4  0ENDTAB
  0
TABLE
  2
VIEW
 70
     0
  0
ENDTAB
  0
TABLE
  2
UCS
 70
     0
  0
ENDTAB
  0
TABLE
  2
DWGMGR
 70
     0
  0
ENDTAB
  0
ENDSEC
  0
SECTION
  2
BLOCKS
  0
BLOCK
  8
LAYER1
  2
Group1
 70
     0
 10
0
 20
0
 30
0
  0
TEXT
  8
LAYER1
 62
     7
 10
0.2862
 20
10.5538
 30
0
 40
0.125
  1
General Drawing - North Arrows
 50
0
999
Geneva
  0
LINE
  8
LAYER1
  6
CONTINUOUS
 62
     7
 10
0.2361
 20
10.8194
 30
0
 11
4.7778
 21
10.8194
 31
0
  0
ENDBLK
  8
LAYER1
  0
BLOCK
  8
LAYER1
  2
Group2
 70
     0
 10
0
 20
0
 30
0
  0
LINE
  8
LAYER1
  6
CONTINUOUS
 62
     7
 10
0.2778
 20
10.4583
 30
0
 11
4.8194
 21
10.4583
 31
0
  0
SOLID
  8
LAYER1
 62
     7
 10
1.5833
 20
10.4028
 30
0
 11
1.5833
 21
9.3611
 31
0
 12
1.375
 22
9.1805
 32
0
 13
1.375
 23
9.1805
 33
0
  0
LINE
  8
LAYER1
  6
CONTINUOUS
 62
     7
 10
1.5833
 20
10.4028
 30
0
 11
1.5833
 21
8.3194
 31
0
  0
CIRCLE
  8
LAYER1
 10
1.6111
 20
9.125
 30
0
 40
0.2361
  0
CIRCLE
  8
LAYER1
 10
1.6111
 20
9.125
 30
0
 40
0.2361
  0
TEXT
  8
LAYER1
 62
     7
 10
1.4668
 20
8.9983
 30
0
 40
0.25
  1
N
 50
0
999
Geneva
  0
ENDBLK
  8
LAYER1
  0
BLOCK
  8
LAYER1
  2
Group3
 70
     0
 10
0
 20
0
 30
0
  0
SOLID
  8
LAYER1
 62
     7
 10
0.6111
 20
7.1944
 30
0
 11
0.4722
 21
7.0972
 31
0
 12
0.6111
 22
7.9028
 32
0
 13
0.6111
 23
7.9028
 33
0
  0
SOLID
  8
LAYER1
 62
     7
 10
0.7222
 20
5.8055
 30
0
 11
0.6111
 21
5.9167
 31
0
 12
0.7222
 22
6.5139
 32
0
 13
0.7222
 23
6.5139
 33
0
  0
ENDBLK
  8
LAYER1
  0
BLOCK
  8
LAYER1
  2
Group4
 70
     0
 10
0
 20
0
 30
0
  0
INSERT
  8
LAYER1
  2
Group3
 10
0
 20
0
 30
0
  0
LINE
  8
LAYER1
  6
CONTINUOUS
 62
     7
 10
0.6111
 20
5.9167
 30
0
 11
0.6111
 21
7.9028
 31
0
  0
POLYLINE
  8
LAYER1
  6
CONTINUOUS
 62
     7
 66
     1
 70
     0
 40
0
 41
0
  0
VERTEX
  8
LAYER1
 10
0.4861
 20
7
 30
0
 70
     0
  0
VERTEX
  8
LAYER1
 10
0.7361
 20
7
 30
0
 70
     0
  0
VERTEX
  8
LAYER1
 10
0.7361
 20
6.6805
 30
0
 70
     0
  0
VERTEX
  8
LAYER1
 10
0.4861
 20
6.6805
 30
0
 70
     0
  0
VERTEX
  8
LAYER1
 10
0.4861
 20
7
 30
0
 70
     0
  0
SEQEND
  0
TEXT
  8
LAYER1
 62
     7
 10
0.5223
 20
6.7621
 30
0
 40
0.1806
  1
N
 50
0
999
Geneva
  0
ENDBLK
  8
LAYER1
  0
BLOCK
  8
LAYER1
  2
Group5
 70
     0
 10
0
 20
0
 30
0
  0
POLYLINE
  8
LAYER1
  6
CONTINUOUS
 62
     7
 66
     1
 70
     0
 40
0.0039
 41
0.0039
  0
VERTEX
  8
LAYER1
 10
1.4306
 20
7.0972
 30
0
 70
     0
  0
VERTEX
  8
LAYER1
 10
1.5694
 20
7.9028
 30
0
 70
     0
  0
VERTEX
  8
LAYER1
 10
1.5694
 20
7.1944
 30
0
 70
     0
  0
VERTEX
  8
LAYER1
 10
1.4306
 20
7.0972
 30
0
 70
     0
  0
SEQEND
  0
POLYLINE
  8
LAYER1
  6
CONTINUOUS
 62
     7
 66
     1
 70
     0
 40
0.0039
 41
0.0039
  0
VERTEX
  8
LAYER1
 10
1.5694
 20
6.6111
 30
0
 70
     0
  0
VERTEX
  8
LAYER1
 10
1.6667
 20
6.5139
 30
0
 70
     0
  0
VERTEX
  8
LAYER1
 10
1.6667
 20
5.8055
 30
0
 70
     0
  0
VERTEX
  8
LAYER1
 10
1.5694
 20
5.9167
 30
0
 70
     0
  0
SEQEND
  0
ENDBLK
  8
LAYER1
  0
BLOCK
  8
LAYER1
  2
Group6
 70
     0
 10
0
 20
0
 30
0
  0
INSERT
  8
LAYER1
  2
Group5
 10
0
 20
0
 30
0
  0
LINE
  8
LAYER1
  6
CONTINUOUS
 62
     7
 10
1.5694
 20
5.9167
 30
0
 11
1.5694
 21
7.9028
 31
0
  0
POLYLINE
  8
LAYER1
  6
CONTINUOUS
 62
     7
 66
     1
 70
     0
 40
0
 41
0
  0
VERTEX
  8
LAYER1
 10
1.4444
 20
7
 30
0
 70
     0
  0
VERTEX
  8
LAYER1
 10
1.6944
 20
7
 30
0
 70
     0
  0
VERTEX
  8
LAYER1
 10
1.6944
 20
6.6805
 30
0
 70
     0
  0
VERTEX
  8
LAYER1
 10
1.4444
 20
6.6805
 30
0
 70
     0
  0
VERTEX
  8
LAYER1
 10
1.4444
 20
7
 30
0
 70
     0
  0
SEQEND
  0
TEXT
  8
LAYER1
 62
     7
 10
1.4807
 20
6.7621
 30
0
 40
0.1806
  1
N
 50
0
999
Geneva
  0
ENDBLK
  8
LAYER1
  0
BLOCK
  8
LAYER1
  2
Group7
 70
     0
 10
0
 20
0
 30
0
  0
POLYLINE
  8
LAYER1
  6
CONTINUOUS
 62
     7
 66
     1
 70
     0
 40
0.0039
 41
0.0039
  0
VERTEX
  8
LAYER1
 10
0.5972
 20
9.3611
 30
0
 70
     0
  0
VERTEX
  8
LAYER1
 10
0.375
 20
9.1805
 30
0
 70
     0
  0
VERTEX
  8
LAYER1
 10
0.5972
 20
10.4028
 30
0
 70
     0
  0
VERTEX
  8
LAYER1
 10
0.5972
 20
9.3611
 30
0
 70
     0
  0
SEQEND
  0
LINE
  8
LAYER1
  6
CONTINUOUS
 62
     7
 10
0.5972
 20
10.4028
 30
0
 11
0.5972
 21
8.3194
 31
0
  0
CIRCLE
  8
LAYER1
 10
0.6111
 20
9.125
 30
0
 40
0.2361
  0
CIRCLE
  8
LAYER1
 10
0.6111
 20
9.125
 30
0
 40
0.2361
  0
TEXT
  8
LAYER1
 62
     7
 10
0.4807
 20
8.9983
 30
0
 40
0.25
  1
N
 50
0
999
Geneva
  0
ENDBLK
  8
LAYER1
  0
BLOCK
  8
LAYER1
  2
Group8
 70
     0
 10
0
 20
0
 30
0
  0
POLYLINE
  8
LAYER1
  6
CONTINUOUS
 62
     7
 66
     1
 70
     0
 40
0.0039
 41
0.0039
  0
VERTEX
  8
LAYER1
 10
2.4444
 20
7.0972
 30
0
 70
     0
  0
VERTEX
  8
LAYER1
 10
2.5972
 20
7.9028
 30
0
 70
     0
  0
VERTEX
  8
LAYER1
 10
2.5972
 20
7.1944
 30
0
 70
     0
  0
VERTEX
  8
LAYER1
 10
2.4444
 20
7.0972
 30
0
 70
     0
  0
SEQEND
  0
POLYLINE
  8
LAYER1
  6
CONTINUOUS
 62
     7
 66
     1
 70
     0
 40
0.0039
 41
0.0039
  0
VERTEX
  8
LAYER1
 10
2.5972
 20
6.6111
 30
0
 70
     0
  0
VERTEX
  8
LAYER1
 10
2.6944
 20
6.5139
 30
0
 70
     0
  0
VERTEX
  8
LAYER1
 10
2.6944
 20
5.8055
 30
0
 70
     0
  0
VERTEX
  8
LAYER1
 10
2.5972
 20
5.9167
 30
0
 70
     0
  0
SEQEND
  0
ENDBLK
  8
LAYER1
  0
BLOCK
  8
LAYER1
  2
Group9
 70
     0
 10
0
 20
0
 30
0
  0
POLYLINE
  8
LAYER1
  6
CONTINUOUS
 62
     7
 66
     1
 70
     0
 40
0
 41
0
  0
VERTEX
  8
LAYER1
 10
2.4167
 20
7.125
 30
0
 70
     0
  0
VERTEX
  8
LAYER1
 10
2.5972
 20
7.125
 30
0
 70
     0
  0
VERTEX
  8
LAYER1
 10
2.5972
 20
6.2639
 30
0
 70
     0
  0
VERTEX
  8
LAYER1
 10
2.4167
 20
6.2639
 30
0
 70
     0
  0
VERTEX
  8
LAYER1
 10
2.4167
 20
7.125
 30
0
 70
     0
  0
SEQEND
  0
TEXT
  8
LAYER1
 62
     7
 10
2.5468
 20
6.4701
 30
0
 40
0.0972
  1
NORTH
 50
89.9
999
Geneva
  0
INSERT
  8
LAYER1
  2
Group8
 10
0
 20
0
 30
0
  0
ENDBLK
  8
LAYER1
  0
BLOCK
  8
LAYER1
  2
Group10
 70
     0
 10
0
 20
0
 30
0
  0
SOLID
  8
LAYER1
 62
     7
 10
3.5972
 20
7.1944
 30
0
 11
3.4444
 21
7.0972
 31
0
 12
3.5972
 22
7.9028
 32
0
 13
3.5972
 23
7.9028
 33
0
  0
SOLID
  8
LAYER1
 62
     7
 10
3.6944
 20
5.8055
 30
0
 11
3.5972
 21
5.9167
 31
0
 12
3.6944
 22
6.5139
 32
0
 13
3.6944
 23
6.5139
 33
0
  0
ENDBLK
  8
LAYER1
  0
BLOCK
  8
LAYER1
  2
Group11
 70
     0
 10
0
 20
0
 30
0
  0
LINE
  8
LAYER1
  6
CONTINUOUS
 62
     7
 10
2.5972
 20
5.9167
 30
0
 11
2.5972
 21
7.9028
 31
0
  0
POLYLINE
  8
LAYER1
  6
CONTINUOUS
 62
     7
 66
     1
 70
     0
 40
0
 41
0
  0
VERTEX
  8
LAYER1
 10
3.4167
 20
7.125
 30
0
 70
     0
  0
VERTEX
  8
LAYER1
 10
3.5972
 20
7.125
 30
0
 70
     0
  0
VERTEX
  8
LAYER1
 10
3.5972
 20
6.2639
 30
0
 70
     0
  0
VERTEX
  8
LAYER1
 10
3.4167
 20
6.2639
 30
0
 70
     0
  0
VERTEX
  8
LAYER1
 10
3.4167
 20
7.125
 30
0
 70
     0
  0
SEQEND
  0
TEXT
  8
LAYER1
 62
     7
 10
3.5329
 20
6.484
 30
0
 40
0.0972
  1
NORTH
 50
89.9
999
Geneva
  0
INSERT
  8
LAYER1
  2
Group10
 10
0
 20
0
 30
0
  0
ENDBLK
  8
LAYER1
  0
BLOCK
  8
LAYER1
  2
Group12
 70
     0
 10
0
 20
0
 30
0
  0
SOLID
  8
LAYER1
 62
     7
 10
4.5556
 20
7.125
 30
0
 11
4.4167
 21
7.0278
 31
0
 12
4.5556
 22
7.8472
 32
0
 13
4.5556
 23
7.8472
 33
0
  0
SOLID
  8
LAYER1
 62
     7
 10
4.6667
 20
5.75
 30
0
 11
4.5556
 21
5.8472
 31
0
 12
4.6667
 22
6.4444
 32
0
 13
4.6667
 23
6.4444
 33
0
  0
ENDBLK
  8
LAYER1
  0
BLOCK
  8
LAYER1
  2
Group13
 70
     0
 10
0
 20
0
 30
0
  0
LINE
  8
LAYER1
  6
CONTINUOUS
 62
     7
 10
4.5556
 20
5.8472
 30
0
 11
4.5556
 21
7.8472
 31
0
  0
POLYLINE
  8
LAYER1
  6
CONTINUOUS
 62
     7
 66
     1
 70
     0
 40
0.0039
 41
0.0039
  0
VERTEX
  8
LAYER1
 10
4.4722
 20
6.8611
 30
0
 70
     0
  0
VERTEX
  8
LAYER1
 10
4.6389
 20
6.8611
 30
0
 70
     0
  0
VERTEX
  8
LAYER1
 10
4.6389
 20
6.7917
 30
0
 70
     0
  0
VERTEX
  8
LAYER1
 10
4.4722
 20
6.7917
 30
0
 70
     0
  0
VERTEX
  8
LAYER1
 10
4.4722
 20
6.8611
 30
0
 70
     0
  0
SEQEND
  0
SOLID
  8
LAYER1
 62
     7
 10
4.5694
 20
6.9444
 30
0
 11
4.6389
 21
6.875
 31
0
 12
4.5694
 22
6.875
 32
0
 13
4.5694
 23
6.875
 33
0
  0
POLYLINE
  8
LAYER1
  6
CONTINUOUS
 62
     7
 66
     1
 70
     0
 40
0.0039
 41
0.0039
  0
VERTEX
  8
LAYER1
 10
4.4722
 20
6.875
 30
0
 70
     0
  0
VERTEX
  8
LAYER1
 10
4.5417
 20
6.875
 30
0
 70
     0
  0
VERTEX
  8
LAYER1
 10
4.5417
 20
6.9444
 30
0
 70
     0
  0
VERTEX
  8
LAYER1
 10
4.4722
 20
6.875
 30
0
 70
     0
  0
SEQEND
  0
SOLID
  8
LAYER1
 62
     7
 10
4.5417
 20
6.7361
 30
0
 11
4.4722
 21
6.7917
 31
0
 12
4.5417
 22
6.7917
 32
0
 13
4.5417
 23
6.7917
 33
0
  0
POLYLINE
  8
LAYER1
  6
CONTINUOUS
 62
     7
 66
     1
 70
     0
 40
0.0039
 41
0.0039
  0
VERTEX
  8
LAYER1
 10
4.6389
 20
6.7917
 30
0
 70
     0
  0
VERTEX
  8
LAYER1
 10
4.5694
 20
6.7917
 30
0
 70
     0
  0
VERTEX
  8
LAYER1
 10
4.5694
 20
6.7361
 30
0
 70
     0
  0
VERTEX
  8
LAYER1
 10
4.6389
 20
6.7917
 30
0
 70
     0
  0
SEQEND
  0
ENDBLK
  8
LAYER1
  0
BLOCK
  8
LAYER1
  2
Group14
 70
     0
 10
0
 20
0
 30
0
  0
LINE
  8
LAYER1
  6
CONTINUOUS
 62
     7
 10
3.5972
 20
5.9167
 30
0
 11
3.5972
 21
7.9028
 31
0
  0
POLYLINE
  8
LAYER1
  6
CONTINUOUS
 62
     7
 66
     1
 70
     0
 40
0
 41
0
  0
VERTEX
  8
LAYER1
 10
4.4167
 20
8.125
 30
0
 70
     0
  0
VERTEX
  8
LAYER1
 10
4.7083
 20
8.125
 30
0
 70
     0
  0
VERTEX
  8
LAYER1
 10
4.7083
 20
7.8055
 30
0
 70
     0
  0
VERTEX
  8
LAYER1
 10
4.4167
 20
7.8055
 30
0
 70
     0
  0
VERTEX
  8
LAYER1
 10
4.4167
 20
8.125
 30
0
 70
     0
  0
SEQEND
  0
TEXT
  8
LAYER1
 62
     7
 10
4.4668
 20
7.8871
 30
0
 40
0.1806
  1
N
 50
0
999
Geneva
  0
INSERT
  8
LAYER1
  2
Group12
 10
0
 20
0
 30
0
  0
INSERT
  8
LAYER1
  2
Group13
 10
0
 20
0
 30
0
  0
ENDBLK
  8
LAYER1
  0
BLOCK
  8
LAYER1
  2
Group15
 70
     0
 10
0
 20
0
 30
0
  0
POLYLINE
  8
LAYER1
  6
CONTINUOUS
 62
     7
 66
     1
 70
     0
 40
0.0039
 41
0.0039
  0
VERTEX
  8
LAYER1
 10
5.4167
 20
7.0278
 30
0
 70
     0
  0
VERTEX
  8
LAYER1
 10
5.5556
 20
7.8472
 30
0
 70
     0
  0
VERTEX
  8
LAYER1
 10
5.5556
 20
7.125
 30
0
 70
     0
  0
VERTEX
  8
LAYER1
 10
5.4167
 20
7.0278
 30
0
 70
     0
  0
SEQEND
  0
POLYLINE
  8
LAYER1
  6
CONTINUOUS
 62
     7
 66
     1
 70
     0
 40
0.0039
 41
0.0039
  0
VERTEX
  8
LAYER1
 10
5.5556
 20
6.5555
 30
0
 70
     0
  0
VERTEX
  8
LAYER1
 10
5.6667
 20
6.4444
 30
0
 70
     0
  0
VERTEX
  8
LAYER1
 10
5.6667
 20
5.75
 30
0
 70
     0
  0
VERTEX
  8
LAYER1
 10
5.5556
 20
5.8472
 30
0
 70
     0
  0
SEQEND
  0
ENDBLK
  8
LAYER1
  0
BLOCK
  8
LAYER1
  2
Group16
 70
     0
 10
0
 20
0
 30
0
  0
LINE
  8
LAYER1
  6
CONTINUOUS
 62
     7
 10
5.5556
 20
5.8472
 30
0
 11
5.5556
 21
7.8472
 31
0
  0
POLYLINE
  8
LAYER1
  6
CONTINUOUS
 62
     7
 66
     1
 70
     0
 40
0.0039
 41
0.0039
  0
VERTEX
  8
LAYER1
 10
5.4722
 20
6.8611
 30
0
 70
     0
  0
VERTEX
  8
LAYER1
 10
5.6389
 20
6.8611
 30
0
 70
     0
  0
VERTEX
  8
LAYER1
 10
5.6389
 20
6.7917
 30
0
 70
     0
  0
VERTEX
  8
LAYER1
 10
5.4722
 20
6.7917
 30
0
 70
     0
  0
VERTEX
  8
LAYER1
 10
5.4722
 20
6.8611
 30
0
 70
     0
  0
SEQEND
  0
POLYLINE
  8
LAYER1
  6
CONTINUOUS
 62
     7
 66
     1
 70
     0
 40
0.0039
 41
0.0039
  0
VERTEX
  8
LAYER1
 10
5.6389
 20
6.875
 30
0
 70
     0
  0
VERTEX
  8
LAYER1
 10
5.5694
 20
6.875
 30
0
 70
     0
  0
VERTEX
  8
LAYER1
 10
5.5694
 20
6.9444
 30
0
 70
     0
  0
VERTEX
  8
LAYER1
 10
5.6389
 20
6.875
 30
0
 70
     0
  0
SEQEND
  0
SOLID
  8
LAYER1
 62
     7
 10
5.5417
 20
6.9444
 30
0
 11
5.4722
 21
6.875
 31
0
 12
5.5417
 22
6.875
 32
0
 13
5.5417
 23
6.875
 33
0
  0
POLYLINE
  8
LAYER1
  6
CONTINUOUS
 62
     7
 66
     1
 70
     0
 40
0.0039
 41
0.0039
  0
VERTEX
  8
LAYER1
 10
5.4722
 20
6.7917
 30
0
 70
     0
  0
VERTEX
  8
LAYER1
 10
5.5417
 20
6.7917
 30
0
 70
     0
  0
VERTEX
  8
LAYER1
 10
5.5417
 20
6.7361
 30
0
 70
     0
  0
VERTEX
  8
LAYER1
 10
5.4722
 20
6.7917
 30
0
 70
     0
  0
SEQEND
  0
SOLID
  8
LAYER1
 62
     7
 10
5.5694
 20
6.7361
 30
0
 11
5.6389
 21
6.7917
 31
0
 12
5.5694
 22
6.7917
 32
0
 13
5.5694
 23
6.7917
 33
0
  0
ENDBLK
  8
LAYER1
  0
BLOCK
  8
LAYER1
  2
Group17
 70
     0
 10
0
 20
0
 30
0
  0
POLYLINE
  8
LAYER1
  6
CONTINUOUS
 62
     7
 66
     1
 70
     0
 40
0
 41
0
  0
VERTEX
  8
LAYER1
 10
5.4167
 20
8.125
 30
0
 70
     0
  0
VERTEX
  8
LAYER1
 10
5.7083
 20
8.125
 30
0
 70
     0
  0
VERTEX
  8
LAYER1
 10
5.7083
 20
7.8055
 30
0
 70
     0
  0
VERTEX
  8
LAYER1
 10
5.4167
 20
7.8055
 30
0
 70
     0
  0
VERTEX
  8
LAYER1
 10
5.4167
 20
8.125
 30
0
 70
     0
  0
SEQEND
  0
TEXT
  8
LAYER1
 62
     7
 10
5.4668
 20
7.8871
 30
0
 40
0.1806
  1
N
 50
0
999
Geneva
  0
INSERT
  8
LAYER1
  2
Group15
 10
0
 20
0
 30
0
  0
INSERT
  8
LAYER1
  2
Group16
 10
0
 20
0
 30
0
  0
ENDBLK
  8
LAYER1
  0
BLOCK
  8
LAYER1
  2
Group18
 70
     0
 10
0
 20
0
 30
0
  0
POLYLINE
  8
LAYER1
  6
CONTINUOUS
 62
     7
 66
     1
 70
     0
 40
0.0039
 41
0.0039
  0
VERTEX
  8
LAYER1
 10
0.4861
 20
4.75
 30
0
 70
     0
  0
VERTEX
  8
LAYER1
 10
0.4861
 20
4.7639
 30
0
 70
     0
  0
VERTEX
  8
LAYER1
 10
0.5
 20
4.8194
 30
0
 70
     0
  0
VERTEX
  8
LAYER1
 10
0.5
 20
4.8472
 30
0
 70
     0
  0
VERTEX
  8
LAYER1
 10
0.5278
 20
4.9028
 30
0
 70
     0
  0
VERTEX
  8
LAYER1
 10
0.5417
 20
4.9444
 30
0
 70
     0
  0
VERTEX
  8
LAYER1
 10
0.5694
 20
4.9861
 30
0
 70
     0
  0
VERTEX
  8
LAYER1
 10
0.5972
 20
5.0278
 30
0
 70
     0
  0
VERTEX
  8
LAYER1
 10
0.625
 20
5.0555
 30
0
 70
     0
  0
VERTEX
  8
LAYER1
 10
0.6389
 20
5.0694
 30
0
 70
     0
  0
VERTEX
  8
LAYER1
 10
0.6528
 20
5.0833
 30
0
 70
     0
  0
VERTEX
  8
LAYER1
 10
0.6944
 20
5.125
 30
0
 70
     0
  0
VERTEX
  8
LAYER1
 10
0.75
 20
5.1528
 30
0
 70
     0
  0
VERTEX
  8
LAYER1
 10
0.7917
 20
5.1805
 30
0
 70
     0
  0
VERTEX
  8
LAYER1
 10
0.8611
 20
5.2083
 30
0
 70
     0
  0
VERTEX
  8
LAYER1
 10
0.9167
 20
5.2222
 30
0
 70
     0
  0
VERTEX
  8
LAYER1
 10
0.9722
 20
5.2361
 30
0
 70
     0
  0
VERTEX
  8
LAYER1
 10
1.0278
 20
5.2361
 30
0
 70
     0
  0
VERTEX
  8
LAYER1
 10
1.0556
 20
5.2361
 30
0
 70
     0
  0
VERTEX
  8
LAYER1
 10
1.0833
 20
5.2361
 30
0
 70
     0
  0
VERTEX
  8
LAYER1
 10
1.1389
 20
5.2361
 30
0
 70
     0
  0
VERTEX
  8
LAYER1
 10
1.1944
 20
5.2222
 30
0
 70
     0
  0
VERTEX
  8
LAYER1
 10
1.2361
 20
5.2083
 30
0
 70
     0
  0
VERTEX
  8
LAYER1
 10
1.3056
 20
5.1805
 30
0
 70
     0
  0
VERTEX
  8
LAYER1
 10
1.3611
 20
5.1528
 30
0
 70
     0
  0
VERTEX
  8
LAYER1
 10
1.4028
 20
5.125
 30
0
 70
     0
  0
VERTEX
  8
LAYER1
 10
1.4444
 20
5.0833
 30
0
 70
     0
  0
VERTEX
  8
LAYER1
 10
1.4583
 20
5.0694
 30
0
 70
     0
  0
VERTEX
  8
LAYER1
 10
1.5
 20
5.0278
 30
0
 70
     0
  0
VERTEX
  8
LAYER1
 10
1.5556
 20
4.9583
 30
0
 70
     0
  0
VERTEX
  8
LAYER1
 10
1.5972
 20
4.875
 30
0
 70
     0
  0
VERTEX
  8
LAYER1
 10
1.625
 20
4.7917
 30
0
 70
     0
  0
VERTEX
  8
LAYER1
 10
1.625
 20
4.75
 30
0
 70
     0
  0
VERTEX
  8
LAYER1
 10
1.0556
 20
4.6667
 30
0
 70
     0
  0
VERTEX
  8
LAYER1
 10
0.4861
 20
4.75
 30
0
 70
     0
  0
SEQEND
  0
POLYLINE
  8
LAYER1
  6
CONTINUOUS
 62
     7
 66
     1
 70
     0
 40
0.0039
 41
0.0039
  0
VERTEX
  8
LAYER1
 10
0.9861
 20
4.0972
 30
0
 70
     0
  0
VERTEX
  8
LAYER1
 10
0.9722
 20
4.0972
 30
0
 70
     0
  0
VERTEX
  8
LAYER1
 10
0.9028
 20
4.1111
 30
0
 70
     0
  0
VERTEX
  8
LAYER1
 10
0.875
 20
4.1111
 30
0
 70
     0
  0
VERTEX
  8
LAYER1
 10
0.8194
 20
4.1389
 30
0
 70
     0
  0
VERTEX
  8
LAYER1
 10
0.7778
 20
4.1528
 30
0
 70
     0
  0
VERTEX
  8
LAYER1
 10
0.7361
 20
4.1805
 30
0
 70
     0
  0
VERTEX
  8
LAYER1
 10
0.6944
 20
4.2083
 30
0
 70
     0
  0
VERTEX
  8
LAYER1
 10
0.6528
 20
4.2361
 30
0
 70
     0
  0
VERTEX
  8
LAYER1
 10
0.6389
 20
4.25
 30
0
 70
     0
  0
VERTEX
  8
LAYER1
 10
0.6111
 20
4.2778
 30
0
 70
     0
  0
VERTEX
  8
LAYER1
 10
0.5556
 20
4.3611
 30
0
 70
     0
  0
VERTEX
  8
LAYER1
 10
0.5139
 20
4.4444
 30
0
 70
     0
  0
VERTEX
  8
LAYER1
 10
0.4861
 20
4.5417
 30
0
 70
     0
  0
VERTEX
  8
LAYER1
 10
0.4722
 20
4.5972
 30
0
 70
     0
  0
VERTEX
  8
LAYER1
 10
1.0556
 20
4.6667
 30
0
 70
     0
  0
VERTEX
  8
LAYER1
 10
0.9861
 20
4.0972
 30
0
 70
     0
  0
SEQEND
  0
POLYLINE
  8
LAYER1
  6
CONTINUOUS
 62
     7
 66
     1
 70
     0
 40
0.0039
 41
0.0039
  0
VERTEX
  8
LAYER1
 10
1.625
 20
4.5972
 30
0
 70
     0
  0
VERTEX
  8
LAYER1
 10
1.625
 20
4.5555
 30
0
 70
     0
  0
VERTEX
  8
LAYER1
 10
1.5972
 20
4.4583
 30
0
 70
     0
  0
VERTEX
  8
LAYER1
 10
1.5556
 20
4.375
 30
0
 70
     0
  0
VERTEX
  8
LAYER1
 10
1.5
 20
4.2917
 30
0
 70
     0
  0
VERTEX
  8
LAYER1
 10
1.4583
 20
4.25
 30
0
 70
     0
  0
VERTEX
  8
LAYER1
 10
1.4444
 20
4.2361
 30
0
 70
     0
  0
VERTEX
  8
LAYER1
 10
1.4028
 20
4.2083
 30
0
 70
     0
  0
VERTEX
  8
LAYER1
 10
1.3611
 20
4.1805
 30
0
 70
     0
  0
VERTEX
  8
LAYER1
 10
1.3194
 20
4.1528
 30
0
 70
     0
  0
VERTEX
  8
LAYER1
 10
1.2778
 20
4.1389
 30
0
 70
     0
  0
VERTEX
  8
LAYER1
 10
1.2222
 20
4.1111
 30
0
 70
     0
  0
VERTEX
  8
LAYER1
 10
1.1944
 20
4.1111
 30
0
 70
     0
  0
VERTEX
  8
LAYER1
 10
1.125
 20
4.0972
 30
0
 70
     0
  0
VERTEX
  8
LAYER1
 10
1.1111
 20
4.0972
 30
0
 70
     0
  0
VERTEX
  8
LAYER1
 10
1.0556
 20
4.6667
 30
0
 70
     0
  0
VERTEX
  8
LAYER1
 10
1.625
 20
4.5972
 30
0
 70
     0
  0
SEQEND
  0
LINE
  8
LAYER1
  6
CONTINUOUS
 62
     7
 10
1.0556
 20
5.0833
 30
0
 11
0.4722
 21
4.75
 31
0
  0
LINE
  8
LAYER1
  6
CONTINUOUS
 62
     7
 10
1.0556
 20
5.0833
 30
0
 11
1.6111
 21
4.75
 31
0
  0
POLYLINE
  8
LAYER1
  6
CONTINUOUS
 62
     7
 66
     1
 70
     0
 40
0.0039
 41
0.0039
  0
VERTEX
  8
LAYER1
 10
1.625
 20
4.5972
 30
0
 70
     0
  0
VERTEX
  8
LAYER1
 10
1.1111
 20
4.9028
 30
0
 70
     0
  0
VERTEX
  8
LAYER1
 10
1.1111
 20
4.0972
 30
0
 70
     0
  0
SEQEND
  0
POLYLINE
  8
LAYER1
  6
CONTINUOUS
 62
     7
 66
     1
 70
     0
 40
0.0039
 41
0.0039
  0
VERTEX
  8
LAYER1
 10
0.4722
 20
4.5972
 30
0
 70
     0
  0
VERTEX
  8
LAYER1
 10
0.9861
 20
4.9028
 30
0
 70
     0
  0
VERTEX
  8
LAYER1
 10
0.9861
 20
4.0972
 30
0
 70
     0
  0
SEQEND
  0
ENDBLK
  8
LAYER1
  0
BLOCK
  8
LAYER1
  2
Group19
 70
     0
 10
0
 20
0
 30
0
  0
INSERT
  8
LAYER1
  2
Group18
 10
0
 20
0
 30
0
  0
POLYLINE
  8
LAYER1
  6
CONTINUOUS
 62
     0
 66
     1
 70
     0
 40
0.0039
 41
0.0039
  0
VERTEX
  8
LAYER1
 10
0.4722
 20
4.5972
 30
0
 70
     0
  0
VERTEX
  8
LAYER1
 10
0.4861
 20
4.75
 30
0
 70
     0
  0
VERTEX
  8
LAYER1
 10
1.0556
 20
5.0833
 30
0
 70
     0
  0
VERTEX
  8
LAYER1
 10
1.625
 20
4.75
 30
0
 70
     0
  0
VERTEX
  8
LAYER1
 10
1.625
 20
4.5972
 30
0
 70
     0
  0
VERTEX
  8
LAYER1
 10
1.1111
 20
4.9028
 30
0
 70
     0
  0
VERTEX
  8
LAYER1
 10
1.1111
 20
4.0972
 30
0
 70
     0
  0
VERTEX
  8
LAYER1
 10
0.9861
 20
4.0972
 30
0
 70
     0
  0
VERTEX
  8
LAYER1
 10
0.9861
 20
4.9028
 30
0
 70
     0
  0
VERTEX
  8
LAYER1
 10
0.4722
 20
4.5972
 30
0
 70
     0
  0
SEQEND
  0
POLYLINE
  8
LAYER1
  6
CONTINUOUS
 62
     7
 66
     1
 70
     0
 40
0.0039
 41
0.0039
  0
VERTEX
  8
LAYER1
 10
0.4722
 20
4.5972
 30
0
 70
     0
  0
VERTEX
  8
LAYER1
 10
0.9861
 20
4.9028
 30
0
 70
     0
  0
VERTEX
  8
LAYER1
 10
0.9861
 20
4.0972
 30
0
 70
     0
  0
SEQEND
  0
LINE
  8
LAYER1
  6
CONTINUOUS
 62
     7
 10
1.1111
 20
4.9028
 30
0
 11
1.1111
 21
4.0972
 31
0
  0
LINE
  8
LAYER1
  6
CONTINUOUS
 62
     7
 10
1.1111
 20
4.9028
 30
0
 11
1.625
 21
4.5972
 31
0
  0
POLYLINE
  8
LAYER1
  6
CONTINUOUS
 62
     7
 66
     1
 70
     0
 40
0.0039
 41
0.0039
  0
VERTEX
  8
LAYER1
 10
0.4861
 20
4.75
 30
0
 70
     0
  0
VERTEX
  8
LAYER1
 10
1.0556
 20
5.0833
 30
0
 70
     0
  0
VERTEX
  8
LAYER1
 10
1.625
 20
4.75
 30
0
 70
     0
  0
SEQEND
  0
POLYLINE
  8
LAYER1
  6
CONTINUOUS
 62
     0
 66
     1
 70
     0
 40
0.0039
 41
0.0039
  0
VERTEX
  8
LAYER1
 10
0.7222
 20
5.25
 30
0
 70
     0
  0
VERTEX
  8
LAYER1
 10
1.4028
 20
5.25
 30
0
 70
     0
  0
VERTEX
  8
LAYER1
 10
1.4028
 20
5.1111
 30
0
 70
     0
  0
VERTEX
  8
LAYER1
 10
0.7222
 20
5.1111
 30
0
 70
     0
  0
VERTEX
  8
LAYER1
 10
0.7222
 20
5.25
 30
0
 70
     0
  0
SEQEND
  0
TEXT
  8
LAYER1
 62
     7
 10
0.7723
 20
5.1649
 30
0
 40
0.125
  1
NORTH
 50
0
999
Geneva
  0
ENDBLK
  8
LAYER1
  0
BLOCK
  8
LAYER1
  2
Group20
 70
     0
 10
0
 20
0
 30
0
  0
LINE
  8
LAYER1
  6
CONTINUOUS
 62
     7
 10
0.7222
 20
5.1389
 30
0
 11
1.375
 21
5.1389
 31
0
  0
POLYLINE
  8
LAYER1
  6
CONTINUOUS
 62
     7
 66
     1
 70
     0
 40
0.0039
 41
0.0039
  0
VERTEX
  8
LAYER1
 10
3.4861
 20
4.75
 30
0
 70
     0
  0
VERTEX
  8
LAYER1
 10
3.4861
 20
4.7639
 30
0
 70
     0
  0
VERTEX
  8
LAYER1
 10
3.5
 20
4.8194
 30
0
 70
     0
  0
VERTEX
  8
LAYER1
 10
3.5
 20
4.8472
 30
0
 70
     0
  0
VERTEX
  8
LAYER1
 10
3.5278
 20
4.9028
 30
0
 70
     0
  0
VERTEX
  8
LAYER1
 10
3.5417
 20
4.9444
 30
0
 70
     0
  0
VERTEX
  8
LAYER1
 10
3.5694
 20
4.9861
 30
0
 70
     0
  0
VERTEX
  8
LAYER1
 10
3.5972
 20
5.0278
 30
0
 70
     0
  0
VERTEX
  8
LAYER1
 10
3.625
 20
5.0555
 30
0
 70
     0
  0
VERTEX
  8
LAYER1
 10
3.6389
 20
5.0694
 30
0
 70
     0
  0
VERTEX
  8
LAYER1
 10
3.6528
 20
5.0833
 30
0
 70
     0
  0
VERTEX
  8
LAYER1
 10
3.6944
 20
5.125
 30
0
 70
     0
  0
VERTEX
  8
LAYER1
 10
3.75
 20
5.1528
 30
0
 70
     0
  0
VERTEX
  8
LAYER1
 10
3.7917
 20
5.1805
 30
0
 70
     0
  0
VERTEX
  8
LAYER1
 10
3.8611
 20
5.2083
 30
0
 70
     0
  0
VERTEX
  8
LAYER1
 10
3.9167
 20
5.2222
 30
0
 70
     0
  0
VERTEX
  8
LAYER1
 10
3.9722
 20
5.2361
 30
0
 70
     0
  0
VERTEX
  8
LAYER1
 10
4.0278
 20
5.2361
 30
0
 70
     0
  0
VERTEX
  8
LAYER1
 10
4.0556
 20
5.2361
 30
0
 70
     0
  0
VERTEX
  8
LAYER1
 10
4.0833
 20
5.2361
 30
0
 70
     0
  0
VERTEX
  8
LAYER1
 10
4.1389
 20
5.2361
 30
0
 70
     0
  0
VERTEX
  8
LAYER1
 10
4.1944
 20
5.2222
 30
0
 70
     0
  0
VERTEX
  8
LAYER1
 10
4.2361
 20
5.2083
 30
0
 70
     0
  0
VERTEX
  8
LAYER1
 10
4.3056
 20
5.1805
 30
0
 70
     0
  0
VERTEX
  8
LAYER1
 10
4.3611
 20
5.1528
 30
0
 70
     0
  0
VERTEX
  8
LAYER1
 10
4.4028
 20
5.125
 30
0
 70
     0
  0
VERTEX
  8
LAYER1
 10
4.4444
 20
5.0833
 30
0
 70
     0
  0
VERTEX
  8
LAYER1
 10
4.4583
 20
5.0694
 30
0
 70
     0
  0
VERTEX
  8
LAYER1
 10
4.5
 20
5.0278
 30
0
 70
     0
  0
VERTEX
  8
LAYER1
 10
4.5556
 20
4.9583
 30
0
 70
     0
  0
VERTEX
  8
LAYER1
 10
4.5972
 20
4.875
 30
0
 70
     0
  0
VERTEX
  8
LAYER1
 10
4.625
 20
4.7917
 30
0
 70
     0
  0
VERTEX
  8
LAYER1
 10
4.625
 20
4.75
 30
0
 70
     0
  0
VERTEX
  8
LAYER1
 10
4.0556
 20
4.6667
 30
0
 70
     0
  0
VERTEX
  8
LAYER1
 10
3.4861
 20
4.75
 30
0
 70
     0
  0
SEQEND
  0
POLYLINE
  8
LAYER1
  6
CONTINUOUS
 62
     7
 66
     1
 70
     0
 40
0.0039
 41
0.0039
  0
VERTEX
  8
LAYER1
 10
3.9861
 20
4.0972
 30
0
 70
     0
  0
VERTEX
  8
LAYER1
 10
3.9722
 20
4.0972
 30
0
 70
     0
  0
VERTEX
  8
LAYER1
 10
3.9028
 20
4.1111
 30
0
 70
     0
  0
VERTEX
  8
LAYER1
 10
3.875
 20
4.1111
 30
0
 70
     0
  0
VERTEX
  8
LAYER1
 10
3.8194
 20
4.1389
 30
0
 70
     0
  0
VERTEX
  8
LAYER1
 10
3.7778
 20
4.1528
 30
0
 70
     0
  0
VERTEX
  8
LAYER1
 10
3.7361
 20
4.1805
 30
0
 70
     0
  0
VERTEX
  8
LAYER1
 10
3.6944
 20
4.2083
 30
0
 70
     0
  0
VERTEX
  8
LAYER1
 10
3.6528
 20
4.2361
 30
0
 70
     0
  0
VERTEX
  8
LAYER1
 10
3.6389
 20
4.25
 30
0
 70
     0
  0
VERTEX
  8
LAYER1
 10
3.6111
 20
4.2778
 30
0
 70
     0
  0
VERTEX
  8
LAYER1
 10
3.5556
 20
4.3611
 30
0
 70
     0
  0
VERTEX
  8
LAYER1
 10
3.5139
 20
4.4444
 30
0
 70
     0
  0
VERTEX
  8
LAYER1
 10
3.4861
 20
4.5417
 30
0
 70
     0
  0
VERTEX
  8
LAYER1
 10
3.4722
 20
4.5972
 30
0
 70
     0
  0
VERTEX
  8
LAYER1
 10
4.0556
 20
4.6667
 30
0
 70
     0
  0
VERTEX
  8
LAYER1
 10
3.9861
 20
4.0972
 30
0
 70
     0
  0
SEQEND
  0
POLYLINE
  8
LAYER1
  6
CONTINUOUS
 62
     7
 66
     1
 70
     0
 40
0.0039
 41
0.0039
  0
VERTEX
  8
LAYER1
 10
4.625
 20
4.5972
 30
0
 70
     0
  0
VERTEX
  8
LAYER1
 10
4.625
 20
4.5555
 30
0
 70
     0
  0
VERTEX
  8
LAYER1
 10
4.5972
 20
4.4583
 30
0
 70
     0
  0
VERTEX
  8
LAYER1
 10
4.5556
 20
4.375
 30
0
 70
     0
  0
VERTEX
  8
LAYER1
 10
4.5
 20
4.2917
 30
0
 70
     0
  0
VERTEX
  8
LAYER1
 10
4.4583
 20
4.25
 30
0
 70
     0
  0
VERTEX
  8
LAYER1
 10
4.4444
 20
4.2361
 30
0
 70
     0
  0
VERTEX
  8
LAYER1
 10
4.4028
 20
4.2083
 30
0
 70
     0
  0
VERTEX
  8
LAYER1
 10
4.3611
 20
4.1805
 30
0
 70
     0
  0
VERTEX
  8
LAYER1
 10
4.3194
 20
4.1528
 30
0
 70
     0
  0
VERTEX
  8
LAYER1
 10
4.2778
 20
4.1389
 30
0
 70
     0
  0
VERTEX
  8
LAYER1
 10
4.2222
 20
4.1111
 30
0
 70
     0
  0
VERTEX
  8
LAYER1
 10
4.1944
 20
4.1111
 30
0
 70
     0
  0
VERTEX
  8
LAYER1
 10
4.125
 20
4.0972
 30
0
 70
     0
  0
VERTEX
  8
LAYER1
 10
4.1111
 20
4.0972
 30
0
 70
     0
  0
VERTEX
  8
LAYER1
 10
4.0556
 20
4.6667
 30
0
 70
     0
  0
VERTEX
  8
LAYER1
 10
4.625
 20
4.5972
 30
0
 70
     0
  0
SEQEND
  0
LINE
  8
LAYER1
  6
CONTINUOUS
 62
     7
 10
4.0556
 20
5.0833
 30
0
 11
3.4722
 21
4.75
 31
0
  0
LINE
  8
LAYER1
  6
CONTINUOUS
 62
     7
 10
4.0556
 20
5.0833
 30
0
 11
4.6111
 21
4.75
 31
0
  0
POLYLINE
  8
LAYER1
  6
CONTINUOUS
 62
     7
 66
     1
 70
     0
 40
0.0039
 41
0.0039
  0
VERTEX
  8
LAYER1
 10
4.625
 20
4.5972
 30
0
 70
     0
  0
VERTEX
  8
LAYER1
 10
4.1111
 20
4.9028
 30
0
 70
     0
  0
VERTEX
  8
LAYER1
 10
4.1111
 20
4.0972
 30
0
 70
     0
  0
SEQEND
  0
POLYLINE
  8
LAYER1
  6
CONTINUOUS
 62
     7
 66
     1
 70
     0
 40
0.0039
 41
0.0039
  0
VERTEX
  8
LAYER1
 10
3.4722
 20
4.5972
 30
0
 70
     0
  0
VERTEX
  8
LAYER1
 10
3.9861
 20
4.9028
 30
0
 70
     0
  0
VERTEX
  8
LAYER1
 10
3.9861
 20
4.0972
 30
0
 70
     0
  0
SEQEND
  0
ENDBLK
  8
LAYER1
  0
BLOCK
  8
LAYER1
  2
Group21
 70
     0
 10
0
 20
0
 30
0
  0
INSERT
  8
LAYER1
  2
Group20
 10
0
 20
0
 30
0
  0
POLYLINE
  8
LAYER1
  6
CONTINUOUS
 62
     0
 66
     1
 70
     0
 40
0.0039
 41
0.0039
  0
VERTEX
  8
LAYER1
 10
3.4722
 20
4.5972
 30
0
 70
     0
  0
VERTEX
  8
LAYER1
 10
3.4861
 20
4.75
 30
0
 70
     0
  0
VERTEX
  8
LAYER1
 10
4.0556
 20
5.0833
 30
0
 70
     0
  0
VERTEX
  8
LAYER1
 10
4.625
 20
4.75
 30
0
 70
     0
  0
VERTEX
  8
LAYER1
 10
4.625
 20
4.5972
 30
0
 70
     0
  0
VERTEX
  8
LAYER1
 10
4.1111
 20
4.9028
 30
0
 70
     0
  0
VERTEX
  8
LAYER1
 10
4.1111
 20
4.0972
 30
0
 70
     0
  0
VERTEX
  8
LAYER1
 10
3.9861
 20
4.0972
 30
0
 70
     0
  0
VERTEX
  8
LAYER1
 10
3.9861
 20
4.9028
 30
0
 70
     0
  0
VERTEX
  8
LAYER1
 10
3.4722
 20
4.5972
 30
0
 70
     0
  0
SEQEND
  0
POLYLINE
  8
LAYER1
  6
CONTINUOUS
 62
     0
 66
     1
 70
     0
 40
0.0039
 41
0.0039
  0
VERTEX
  8
LAYER1
 10
3.7222
 20
5.25
 30
0
 70
     0
  0
VERTEX
  8
LAYER1
 10
4.4028
 20
5.25
 30
0
 70
     0
  0
VERTEX
  8
LAYER1
 10
4.4028
 20
5.1111
 30
0
 70
     0
  0
VERTEX
  8
LAYER1
 10
3.7222
 20
5.1111
 30
0
 70
     0
  0
VERTEX
  8
LAYER1
 10
3.7222
 20
5.25
 30
0
 70
     0
  0
SEQEND
  0
TEXT
  8
LAYER1
 62
     7
 10
3.7723
 20
5.1649
 30
0
 40
0.125
  1
NORTH
 50
0
999
Geneva
  0
ENDBLK
  8
LAYER1
  0
BLOCK
  8
LAYER1
  2
Group22
 70
     0
 10
0
 20
0
 30
0
  0
LINE
  8
LAYER1
  6
CONTINUOUS
 62
     7
 10
3.7222
 20
5.1389
 30
0
 11
4.375
 21
5.1389
 31
0
  0
POLYLINE
  8
LAYER1
  6
CONTINUOUS
 62
     7
 66
     1
 70
     0
 40
0.0039
 41
0.0039
  0
VERTEX
  8
LAYER1
 10
1.9861
 20
4.75
 30
0
 70
     0
  0
VERTEX
  8
LAYER1
 10
1.9861
 20
4.7639
 30
0
 70
     0
  0
VERTEX
  8
LAYER1
 10
2
 20
4.8194
 30
0
 70
     0
  0
VERTEX
  8
LAYER1
 10
2
 20
4.8472
 30
0
 70
     0
  0
VERTEX
  8
LAYER1
 10
2.0278
 20
4.9028
 30
0
 70
     0
  0
VERTEX
  8
LAYER1
 10
2.0417
 20
4.9444
 30
0
 70
     0
  0
VERTEX
  8
LAYER1
 10
2.0694
 20
4.9861
 30
0
 70
     0
  0
VERTEX
  8
LAYER1
 10
2.0972
 20
5.0278
 30
0
 70
     0
  0
VERTEX
  8
LAYER1
 10
2.125
 20
5.0555
 30
0
 70
     0
  0
VERTEX
  8
LAYER1
 10
2.1389
 20
5.0694
 30
0
 70
     0
  0
VERTEX
  8
LAYER1
 10
2.1528
 20
5.0833
 30
0
 70
     0
  0
VERTEX
  8
LAYER1
 10
2.1944
 20
5.125
 30
0
 70
     0
  0
VERTEX
  8
LAYER1
 10
2.25
 20
5.1528
 30
0
 70
     0
  0
VERTEX
  8
LAYER1
 10
2.2917
 20
5.1805
 30
0
 70
     0
  0
VERTEX
  8
LAYER1
 10
2.3611
 20
5.2083
 30
0
 70
     0
  0
VERTEX
  8
LAYER1
 10
2.4167
 20
5.2222
 30
0
 70
     0
  0
VERTEX
  8
LAYER1
 10
2.4722
 20
5.2361
 30
0
 70
     0
  0
VERTEX
  8
LAYER1
 10
2.5278
 20
5.2361
 30
0
 70
     0
  0
VERTEX
  8
LAYER1
 10
2.5556
 20
5.2361
 30
0
 70
     0
  0
VERTEX
  8
LAYER1
 10
2.5833
 20
5.2361
 30
0
 70
     0
  0
VERTEX
  8
LAYER1
 10
2.6389
 20
5.2361
 30
0
 70
     0
  0
VERTEX
  8
LAYER1
 10
2.6944
 20
5.2222
 30
0
 70
     0
  0
VERTEX
  8
LAYER1
 10
2.7361
 20
5.2083
 30
0
 70
     0
  0
VERTEX
  8
LAYER1
 10
2.8056
 20
5.1805
 30
0
 70
     0
  0
VERTEX
  8
LAYER1
 10
2.8611
 20
5.1528
 30
0
 70
     0
  0
VERTEX
  8
LAYER1
 10
2.9028
 20
5.125
 30
0
 70
     0
  0
VERTEX
  8
LAYER1
 10
2.9444
 20
5.0833
 30
0
 70
     0
  0
VERTEX
  8
LAYER1
 10
2.9583
 20
5.0694
 30
0
 70
     0
  0
VERTEX
  8
LAYER1
 10
3
 20
5.0278
 30
0
 70
     0
  0
VERTEX
  8
LAYER1
 10
3.0556
 20
4.9583
 30
0
 70
     0
  0
VERTEX
  8
LAYER1
 10
3.0972
 20
4.875
 30
0
 70
     0
  0
VERTEX
  8
LAYER1
 10
3.125
 20
4.7917
 30
0
 70
     0
  0
VERTEX
  8
LAYER1
 10
3.125
 20
4.75
 30
0
 70
     0
  0
VERTEX
  8
LAYER1
 10
2.5556
 20
4.6667
 30
0
 70
     0
  0
VERTEX
  8
LAYER1
 10
1.9861
 20
4.75
 30
0
 70
     0
  0
SEQEND
  0
POLYLINE
  8
LAYER1
  6
CONTINUOUS
 62
     7
 66
     1
 70
     0
 40
0.0039
 41
0.0039
  0
VERTEX
  8
LAYER1
 10
2.4861
 20
4.0972
 30
0
 70
     0
  0
VERTEX
  8
LAYER1
 10
2.4722
 20
4.0972
 30
0
 70
     0
  0
VERTEX
  8
LAYER1
 10
2.4028
 20
4.1111
 30
0
 70
     0
  0
VERTEX
  8
LAYER1
 10
2.375
 20
4.1111
 30
0
 70
     0
  0
VERTEX
  8
LAYER1
 10
2.3194
 20
4.1389
 30
0
 70
     0
  0
VERTEX
  8
LAYER1
 10
2.2778
 20
4.1528
 30
0
 70
     0
  0
VERTEX
  8
LAYER1
 10
2.2361
 20
4.1805
 30
0
 70
     0
  0
VERTEX
  8
LAYER1
 10
2.1944
 20
4.2083
 30
0
 70
     0
  0
VERTEX
  8
LAYER1
 10
2.1528
 20
4.2361
 30
0
 70
     0
  0
VERTEX
  8
LAYER1
 10
2.1389
 20
4.25
 30
0
 70
     0
  0
VERTEX
  8
LAYER1
 10
2.1111
 20
4.2778
 30
0
 70
     0
  0
VERTEX
  8
LAYER1
 10
2.0556
 20
4.3611
 30
0
 70
     0
  0
VERTEX
  8
LAYER1
 10
2.0139
 20
4.4444
 30
0
 70
     0
  0
VERTEX
  8
LAYER1
 10
1.9861
 20
4.5417
 30
0
 70
     0
  0
VERTEX
  8
LAYER1
 10
1.9722
 20
4.5972
 30
0
 70
     0
  0
VERTEX
  8
LAYER1
 10
2.5556
 20
4.6667
 30
0
 70
     0
  0
VERTEX
  8
LAYER1
 10
2.4861
 20
4.0972
 30
0
 70
     0
  0
SEQEND
  0
POLYLINE
  8
LAYER1
  6
CONTINUOUS
 62
     7
 66
     1
 70
     0
 40
0.0039
 41
0.0039
  0
VERTEX
  8
LAYER1
 10
3.125
 20
4.5972
 30
0
 70
     0
  0
VERTEX
  8
LAYER1
 10
3.125
 20
4.5555
 30
0
 70
     0
  0
VERTEX
  8
LAYER1
 10
3.0972
 20
4.4583
 30
0
 70
     0
  0
VERTEX
  8
LAYER1
 10
3.0556
 20
4.375
 30
0
 70
     0
  0
VERTEX
  8
LAYER1
 10
3
 20
4.2917
 30
0
 70
     0
  0
VERTEX
  8
LAYER1
 10
2.9583
 20
4.25
 30
0
 70
     0
  0
VERTEX
  8
LAYER1
 10
2.9444
 20
4.2361
 30
0
 70
     0
  0
VERTEX
  8
LAYER1
 10
2.9028
 20
4.2083
 30
0
 70
     0
  0
VERTEX
  8
LAYER1
 10
2.8611
 20
4.1805
 30
0
 70
     0
  0
VERTEX
  8
LAYER1
 10
2.8194
 20
4.1528
 30
0
 70
     0
  0
VERTEX
  8
LAYER1
 10
2.7778
 20
4.1389
 30
0
 70
     0
  0
VERTEX
  8
LAYER1
 10
2.7222
 20
4.1111
 30
0
 70
     0
  0
VERTEX
  8
LAYER1
 10
2.6944
 20
4.1111
 30
0
 70
     0
  0
VERTEX
  8
LAYER1
 10
2.625
 20
4.0972
 30
0
 70
     0
  0
VERTEX
  8
LAYER1
 10
2.6111
 20
4.0972
 30
0
 70
     0
  0
VERTEX
  8
LAYER1
 10
2.5556
 20
4.6667
 30
0
 70
     0
  0
VERTEX
  8
LAYER1
 10
3.125
 20
4.5972
 30
0
 70
     0
  0
SEQEND
  0
LINE
  8
LAYER1
  6
CONTINUOUS
 62
     7
 10
2.5556
 20
5.0833
 30
0
 11
1.9722
 21
4.75
 31
0
  0
LINE
  8
LAYER1
  6
CONTINUOUS
 62
     7
 10
2.5556
 20
5.0833
 30
0
 11
3.1111
 21
4.75
 31
0
  0
POLYLINE
  8
LAYER1
  6
CONTINUOUS
 62
     7
 66
     1
 70
     0
 40
0.0039
 41
0.0039
  0
VERTEX
  8
LAYER1
 10
3.125
 20
4.5972
 30
0
 70
     0
  0
VERTEX
  8
LAYER1
 10
2.6111
 20
4.9028
 30
0
 70
     0
  0
VERTEX
  8
LAYER1
 10
2.6111
 20
4.0972
 30
0
 70
     0
  0
SEQEND
  0
POLYLINE
  8
LAYER1
  6
CONTINUOUS
 62
     7
 66
     1
 70
     0
 40
0.0039
 41
0.0039
  0
VERTEX
  8
LAYER1
 10
1.9722
 20
4.5972
 30
0
 70
     0
  0
VERTEX
  8
LAYER1
 10
2.4861
 20
4.9028
 30
0
 70
     0
  0
VERTEX
  8
LAYER1
 10
2.4861
 20
4.0972
 30
0
 70
     0
  0
SEQEND
  0
ENDBLK
  8
LAYER1
  0
BLOCK
  8
LAYER1
  2
Group23
 70
     0
 10
0
 20
0
 30
0
  0
INSERT
  8
LAYER1
  2
Group22
 10
0
 20
0
 30
0
  0
POLYLINE
  8
LAYER1
  6
CONTINUOUS
 62
     0
 66
     1
 70
     0
 40
0.0039
 41
0.0039
  0
VERTEX
  8
LAYER1
 10
1.9722
 20
4.5972
 30
0
 70
     0
  0
VERTEX
  8
LAYER1
 10
1.9861
 20
4.75
 30
0
 70
     0
  0
VERTEX
  8
LAYER1
 10
2.5556
 20
5.0833
 30
0
 70
     0
  0
VERTEX
  8
LAYER1
 10
3.125
 20
4.75
 30
0
 70
     0
  0
VERTEX
  8
LAYER1
 10
3.125
 20
4.5972
 30
0
 70
     0
  0
VERTEX
  8
LAYER1
 10
2.6111
 20
4.9028
 30
0
 70
     0
  0
VERTEX
  8
LAYER1
 10
2.6111
 20
4.0972
 30
0
 70
     0
  0
VERTEX
  8
LAYER1
 10
2.4861
 20
4.0972
 30
0
 70
     0
  0
VERTEX
  8
LAYER1
 10
2.4861
 20
4.9028
 30
0
 70
     0
  0
VERTEX
  8
LAYER1
 10
1.9722
 20
4.5972
 30
0
 70
     0
  0
SEQEND
  0
LINE
  8
LAYER1
  6
CONTINUOUS
 62
     7
 10
1.9722
 20
4.5972
 30
0
 11
2.4861
 21
4.9028
 31
0
  0
LINE
  8
LAYER1
  6
CONTINUOUS
 62
     7
 10
2.6111
 20
4.9028
 30
0
 11
2.6111
 21
4.0972
 31
0
  0
LINE
  8
LAYER1
  6
CONTINUOUS
 62
     7
 10
2.6111
 20
4.9028
 30
0
 11
3.125
 21
4.5972
 31
0
  0
POLYLINE
  8
LAYER1
  6
CONTINUOUS
 62
     7
 66
     1
 70
     0
 40
0.0039
 41
0.0039
  0
VERTEX
  8
LAYER1
 10
1.9861
 20
4.75
 30
0
 70
     0
  0
VERTEX
  8
LAYER1
 10
2.5556
 20
5.0833
 30
0
 70
     0
  0
VERTEX
  8
LAYER1
 10
3.125
 20
4.75
 30
0
 70
     0
  0
SEQEND
  0
POLYLINE
  8
LAYER1
  6
CONTINUOUS
 62
     0
 66
     1
 70
     0
 40
0.0039
 41
0.0039
  0
VERTEX
  8
LAYER1
 10
2.2222
 20
5.25
 30
0
 70
     0
  0
VERTEX
  8
LAYER1
 10
2.9028
 20
5.25
 30
0
 70
     0
  0
VERTEX
  8
LAYER1
 10
2.9028
 20
5.1111
 30
0
 70
     0
  0
VERTEX
  8
LAYER1
 10
2.2222
 20
5.1111
 30
0
 70
     0
  0
VERTEX
  8
LAYER1
 10
2.2222
 20
5.25
 30
0
 70
     0
  0
SEQEND
  0
TEXT
  8
LAYER1
 62
     7
 10
2.2723
 20
5.1649
 30
0
 40
0.125
  1
NORTH
 50
0
999
Geneva
  0
LINE
  8
LAYER1
  6
CONTINUOUS
 62
     7
 10
2.2222
 20
5.1389
 30
0
 11
2.875
 21
5.1389
 31
0
  0
ENDBLK
  8
LAYER1
  0
BLOCK
  8
LAYER1
  2
Group24
 70
     0
 10
0
 20
0
 30
0
  0
LINE
  8
LAYER1
  6
CONTINUOUS
 62
     7
 10
2.4861
 20
4.9028
 30
0
 11
2.4861
 21
4.0972
 31
0
  0
POLYLINE
  8
LAYER1
 66
     1
 62
     7
 70
     1
 40
0.338
 41
0.338
  0
VERTEX
  8
LAYER1
 10
3.8796
 20
3.3426
 30
0
 42
1
 70
     0
  0
VERTEX
  8
LAYER1
 10
4.2176
 20
3.0046
 30
0
 42
1
 70
     0
  0
SEQEND
  0
CIRCLE
  8
LAYER1
 10
4.0486
 20
3.1736
 30
0
 40
0.5069
  0
POLYLINE
  8
LAYER1
  6
CONTINUOUS
 62
     7
 66
     1
 70
     0
 40
0.0039
 41
0.0039
  0
VERTEX
  8
LAYER1
 10
3.6111
 20
2.9305
 30
0
 70
     0
  0
VERTEX
  8
LAYER1
 10
4.0278
 20
3.6805
 30
0
 70
     0
  0
VERTEX
  8
LAYER1
 10
4.4583
 20
2.9305
 30
0
 70
     0
  0
VERTEX
  8
LAYER1
 10
3.6111
 20
2.9305
 30
0
 70
     0
  0
SEQEND
  0
TEXT
  8
LAYER1
 62
     7
 10
3.8557
 20
2.9705
 30
0
 40
0.375
  1
N
 50
0
999
Geneva
  0
ENDBLK
  8
LAYER1
  0
BLOCK
  8
LAYER1
  2
Group25
 70
     0
 10
0
 20
0
 30
0
  0
CIRCLE
  8
LAYER1
 10
1.0486
 20
3.1736
 30
0
 40
0.5069
  0
CIRCLE
  8
LAYER1
 10
1.0486
 20
3.1736
 30
0
 40
0.5069
  0
POLYLINE
  8
LAYER1
  6
CONTINUOUS
 62
     7
 66
     1
 70
     0
 40
0.0039
 41
0.0039
  0
VERTEX
  8
LAYER1
 10
0.6111
 20
2.9305
 30
0
 70
     0
  0
VERTEX
  8
LAYER1
 10
1.0278
 20
3.6805
 30
0
 70
     0
  0
VERTEX
  8
LAYER1
 10
1.4583
 20
2.9305
 30
0
 70
     0
  0
VERTEX
  8
LAYER1
 10
0.6111
 20
2.9305
 30
0
 70
     0
  0
SEQEND
  0
TEXT
  8
LAYER1
 62
     7
 10
0.8557
 20
2.9705
 30
0
 40
0.375
  1
N
 50
0
999
Geneva
  0
ENDBLK
  8
LAYER1
  0
BLOCK
  8
LAYER1
  2
Group26
 70
     0
 10
0
 20
0
 30
0
  0
CIRCLE
  8
LAYER1
 10
2.5486
 20
3.1736
 30
0
 40
0.5069
  0
CIRCLE
  8
LAYER1
 10
2.5486
 20
3.1736
 30
0
 40
0.5069
  0
POLYLINE
  8
LAYER1
  6
CONTINUOUS
 62
     7
 66
     1
 70
     0
 40
0.0039
 41
0.0039
  0
VERTEX
  8
LAYER1
 10
2.1111
 20
2.9305
 30
0
 70
     0
  0
VERTEX
  8
LAYER1
 10
2.5278
 20
3.6805
 30
0
 70
     0
  0
VERTEX
  8
LAYER1
 10
2.9583
 20
2.9305
 30
0
 70
     0
  0
VERTEX
  8
LAYER1
 10
2.1111
 20
2.9305
 30
0
 70
     0
  0
SEQEND
  0
TEXT
  8
LAYER1
 62
     7
 10
2.3557
 20
2.9705
 30
0
 40
0.375
  1
N
 50
0
999
Geneva
  0
ENDBLK
  8
LAYER1
  0
BLOCK
  8
LAYER1
  2
Group27
 70
     0
 10
0
 20
0
 30
0
  0
POLYLINE
  8
LAYER1
  6
CONTINUOUS
 62
     7
 66
     1
 70
     0
 40
0.0039
 41
0.0039
  0
VERTEX
  8
LAYER1
 10
0.4444
 20
1.2639
 30
0
 70
     0
  0
VERTEX
  8
LAYER1
 10
1.0278
 20
2.2639
 30
0
 70
     0
  0
VERTEX
  8
LAYER1
 10
1.5972
 20
1.2639
 30
0
 70
     0
  0
VERTEX
  8
LAYER1
 10
0.4444
 20
1.2639
 30
0
 70
     0
  0
SEQEND
  0
POLYLINE
  8
LAYER1
  6
CONTINUOUS
 62
     0
 66
     1
 70
     0
 40
0.0039
 41
0.0039
  0
VERTEX
  8
LAYER1
 10
0.5556
 20
1.8472
 30
0
 70
     0
  0
VERTEX
  8
LAYER1
 10
1.5139
 20
1.8472
 30
0
 70
     0
  0
VERTEX
  8
LAYER1
 10
1.5139
 20
1.5694
 30
0
 70
     0
  0
VERTEX
  8
LAYER1
 10
0.5556
 20
1.5694
 30
0
 70
     0
  0
VERTEX
  8
LAYER1
 10
0.5556
 20
1.8472
 30
0
 70
     0
  0
SEQEND
  0
LINE
  8
LAYER1
  6
CONTINUOUS
 62
     7
 10
0.7778
 20
1.8472
 30
0
 11
1.2639
 21
1.8472
 31
0
  0
TEXT
  8
LAYER1
 62
     7
 10
0.7584
 20
1.651
 30
0
 40
0.125
  1
NORTH
 50
0
999
Geneva
  0
ENDBLK
  8
LAYER1
  0
BLOCK
  8
LAYER1
  2
Group28
 70
     0
 10
0
 20
0
 30
0
  0
LINE
  8
LAYER1
  6
CONTINUOUS
 62
     7
 10
0.625
 20
1.5833
 30
0
 11
1.4167
 21
1.5833
 31
0
  0
POLYLINE
  8
LAYER1
  6
CONTINUOUS
 62
     7
 66
     1
 70
     0
 40
0.0039
 41
0.0039
  0
VERTEX
  8
LAYER1
 10
1.9444
 20
1.2639
 30
0
 70
     0
  0
VERTEX
  8
LAYER1
 10
2.5278
 20
2.2639
 30
0
 70
     0
  0
VERTEX
  8
LAYER1
 10
3.0972
 20
1.2639
 30
0
 70
     0
  0
VERTEX
  8
LAYER1
 10
1.9444
 20
1.2639
 30
0
 70
     0
  0
SEQEND
  0
POLYLINE
  8
LAYER1
  6
CONTINUOUS
 62
     0
 66
     1
 70
     0
 40
0.0039
 41
0.0039
  0
VERTEX
  8
LAYER1
 10
2.0556
 20
1.8472
 30
0
 70
     0
  0
VERTEX
  8
LAYER1
 10
3.0139
 20
1.8472
 30
0
 70
     0
  0
VERTEX
  8
LAYER1
 10
3.0139
 20
1.5694
 30
0
 70
     0
  0
VERTEX
  8
LAYER1
 10
2.0556
 20
1.5694
 30
0
 70
     0
  0
VERTEX
  8
LAYER1
 10
2.0556
 20
1.8472
 30
0
 70
     0
  0
SEQEND
  0
LINE
  8
LAYER1
  6
CONTINUOUS
 62
     7
 10
2.2778
 20
1.8472
 30
0
 11
2.7639
 21
1.8472
 31
0
  0
TEXT
  8
LAYER1
 62
     7
 10
2.2584
 20
1.651
 30
0
 40
0.125
  1
NORTH
 50
0
999
Geneva
  0
ENDBLK
  8
LAYER1
  0
BLOCK
  8
LAYER1
  2
Group29
 70
     0
 10
0
 20
0
 30
0
  0
LINE
  8
LAYER1
  6
CONTINUOUS
 62
     7
 10
2.125
 20
1.5833
 30
0
 11
2.9167
 21
1.5833
 31
0
  0
SOLID
  8
LAYER1
 62
     7
 10
4.5972
 20
1.2639
 30
0
 11
3.4444
 21
1.2639
 31
0
 12
4.0278
 22
2.2639
 32
0
 13
4.0278
 23
2.2639
 33
0
  0
POLYLINE
  8
LAYER1
  6
CONTINUOUS
 62
     0
 66
     1
 70
     0
 40
0.0039
 41
0.0039
  0
VERTEX
  8
LAYER1
 10
3.5556
 20
1.8472
 30
0
 70
     0
  0
VERTEX
  8
LAYER1
 10
4.5139
 20
1.8472
 30
0
 70
     0
  0
VERTEX
  8
LAYER1
 10
4.5139
 20
1.5694
 30
0
 70
     0
  0
VERTEX
  8
LAYER1
 10
3.5556
 20
1.5694
 30
0
 70
     0
  0
VERTEX
  8
LAYER1
 10
3.5556
 20
1.8472
 30
0
 70
     0
  0
SEQEND
  0
LINE
  8
LAYER1
  6
CONTINUOUS
 62
     7
 10
3.7778
 20
1.8472
 30
0
 11
4.2639
 21
1.8472
 31
0
  0
TEXT
  8
LAYER1
 62
     7
 10
3.7584
 20
1.651
 30
0
 40
0.125
  1
NORTH
 50
0
999
Geneva
  0
ENDBLK
  8
LAYER1
  0
BLOCK
  8
LAYER1
  2
Group30
 70
     0
 10
0
 20
0
 30
0
  0
LINE
  8
LAYER1
  6
CONTINUOUS
 62
     7
 10
3.625
 20
1.5833
 30
0
 11
4.4167
 21
1.5833
 31
0
  0
SOLID
  8
LAYER1
 62
     7
 10
4.7778
 20
0.5694
 30
0
 11
3.3611
 21
0.5694
 31
0
 12
4.0694
 22
0.9305
 32
0
 13
4.0694
 23
0.9305
 33
0
  0
CIRCLE
  8
LAYER1
 10
4.0764
 20
0.5625
 30
0
 40
0.2292
  0
CIRCLE
  8
LAYER1
 10
4.0764
 20
0.5625
 30
0
 40
0.2292
  0
TEXT
  8
LAYER1
 62
     7
 10
3.9807
 20
0.5816
 30
0
 40
0.1806
  1
N
 50
0
999
Geneva
  0
ENDBLK
  8
LAYER1
  0
BLOCK
  8
LAYER1
  2
Group31
 70
     0
 10
0
 20
0
 30
0
  0
POLYLINE
  8
LAYER1
  6
CONTINUOUS
 62
     7
 66
     1
 70
     0
 40
0.0139
 41
0.0139
  0
VERTEX
  8
LAYER1
 10
4.875
 20
5.25
 30
0
 70
     0
  0
VERTEX
  8
LAYER1
 10
4.875
 20
4.6667
 30
0
 70
     0
  0
VERTEX
  8
LAYER1
 10
5.4583
 20
5.25
 30
0
 70
     0
  0
VERTEX
  8
LAYER1
 10
4.875
 20
5.25
 30
0
 70
     0
  0
SEQEND
  0
POLYLINE
  8
LAYER1
  6
CONTINUOUS
 62
     7
 66
     1
 70
     0
 40
0.0139
 41
0.0139
  0
VERTEX
  8
LAYER1
 10
6.0417
 20
5.25
 30
0
 70
     0
  0
VERTEX
  8
LAYER1
 10
5.4583
 20
5.25
 30
0
 70
     0
  0
VERTEX
  8
LAYER1
 10
6.0417
 20
4.6667
 30
0
 70
     0
  0
VERTEX
  8
LAYER1
 10
6.0417
 20
5.25
 30
0
 70
     0
  0
SEQEND
  0
POLYLINE
  8
LAYER1
  6
CONTINUOUS
 62
     7
 66
     1
 70
     0
 40
0.0139
 41
0.0139
  0
VERTEX
  8
LAYER1
 10
4.875
 20
4.375
 30
0
 70
     0
  0
VERTEX
  8
LAYER1
 10
5.1667
 20
4.6667
 30
0
 70
     0
  0
VERTEX
  8
LAYER1
 10
5.1667
 20
4.375
 30
0
 70
     0
  0
VERTEX
  8
LAYER1
 10
4.875
 20
4.375
 30
0
 70
     0
  0
SEQEND
  0
POLYLINE
  8
LAYER1
  6
CONTINUOUS
 62
     7
 66
     1
 70
     0
 40
0.0139
 41
0.0139
  0
VERTEX
  8
LAYER1
 10
6.0417
 20
4.375
 30
0
 70
     0
  0
VERTEX
  8
LAYER1
 10
5.75
 20
4.6667
 30
0
 70
     0
  0
VERTEX
  8
LAYER1
 10
5.75
 20
4.375
 30
0
 70
     0
  0
VERTEX
  8
LAYER1
 10
6.0417
 20
4.375
 30
0
 70
     0
  0
SEQEND
  0
ENDBLK
  8
LAYER1
  0
BLOCK
  8
LAYER1
  2
Group32
 70
     0
 10
0
 20
0
 30
0
  0
INSERT
  8
LAYER1
  2
Group31
 10
0
 20
0
 30
0
  0
TEXT
  8
LAYER1
 62
     7
 10
4.8973
 20
4.0399
 30
0
 40
0.25
  1
NORTH
 50
0
999
Geneva
  0
ENDBLK
  8
LAYER1
  0
BLOCK
  8
LAYER1
  2
Group33
 70
     0
 10
0
 20
0
 30
0
  0
POLYLINE
  8
LAYER1
  6
CONTINUOUS
 62
     7
 66
     1
 70
     0
 40
0.0139
 41
0.0139
  0
VERTEX
  8
LAYER1
 10
4.875
 20
3.4722
 30
0
 70
     0
  0
VERTEX
  8
LAYER1
 10
4.875
 20
2.8889
 30
0
 70
     0
  0
VERTEX
  8
LAYER1
 10
5.4583
 20
3.4722
 30
0
 70
     0
  0
VERTEX
  8
LAYER1
 10
4.875
 20
3.4722
 30
0
 70
     0
  0
SEQEND
  0
POLYLINE
  8
LAYER1
  6
CONTINUOUS
 62
     7
 66
     1
 70
     0
 40
0.0139
 41
0.0139
  0
VERTEX
  8
LAYER1
 10
6.0417
 20
3.4722
 30
0
 70
     0
  0
VERTEX
  8
LAYER1
 10
5.4583
 20
3.4722
 30
0
 70
     0
  0
VERTEX
  8
LAYER1
 10
6.0417
 20
2.8889
 30
0
 70
     0
  0
VERTEX
  8
LAYER1
 10
6.0417
 20
3.4722
 30
0
 70
     0
  0
SEQEND
  0
POLYLINE
  8
LAYER1
  6
CONTINUOUS
 62
     7
 66
     1
 70
     0
 40
0.0139
 41
0.0139
  0
VERTEX
  8
LAYER1
 10
4.875
 20
2.5972
 30
0
 70
     0
  0
VERTEX
  8
LAYER1
 10
5.1667
 20
2.8889
 30
0
 70
     0
  0
VERTEX
  8
LAYER1
 10
5.1667
 20
2.5972
 30
0
 70
     0
  0
VERTEX
  8
LAYER1
 10
4.875
 20
2.5972
 30
0
 70
     0
  0
SEQEND
  0
POLYLINE
  8
LAYER1
  6
CONTINUOUS
 62
     7
 66
     1
 70
     0
 40
0.0139
 41
0.0139
  0
VERTEX
  8
LAYER1
 10
6.0417
 20
2.5972
 30
0
 70
     0
  0
VERTEX
  8
LAYER1
 10
5.75
 20
2.8889
 30
0
 70
     0
  0
VERTEX
  8
LAYER1
 10
5.75
 20
2.5972
 30
0
 70
     0
  0
VERTEX
  8
LAYER1
 10
6.0417
 20
2.5972
 30
0
 70
     0
  0
SEQEND
  0
ENDBLK
  8
LAYER1
  0
BLOCK
  8
LAYER1
  2
Group34
 70
     0
 10
0
 20
0
 30
0
  0
INSERT
  8
LAYER1
  2
Group33
 10
0
 20
0
 30
0
  0
TEXT
  8
LAYER1
 62
     7
 10
4.8973
 20
2.2621
 30
0
 40
0.25
  1
NORTH
 50
0
999
Geneva
  0
ENDBLK
  8
LAYER1
  0
BLOCK
  8
LAYER1
  2
Group35
 70
     0
 10
0
 20
0
 30
0
  0
SOLID
  8
LAYER1
 62
     7
 10
5.4583
 20
1.7639
 30
0
 11
4.875
 21
1.7639
 31
0
 12
4.875
 22
1.1805
 32
0
 13
4.875
 23
1.1805
 33
0
  0
SOLID
  8
LAYER1
 62
     7
 10
6.0417
 20
1.1805
 30
0
 11
6.0417
 21
1.7639
 31
0
 12
5.4583
 22
1.7639
 32
0
 13
5.4583
 23
1.7639
 33
0
  0
SOLID
  8
LAYER1
 62
     7
 10
5.1667
 20
0.8889
 30
0
 11
4.875
 21
0.8889
 31
0
 12
5.1667
 22
1.1805
 32
0
 13
5.1667
 23
1.1805
 33
0
  0
SOLID
  8
LAYER1
 62
     7
 10
5.75
 20
0.8889
 30
0
 11
6.0417
 21
0.8889
 31
0
 12
5.75
 22
1.1805
 32
0
 13
5.75
 23
1.1805
 33
0
  0
ENDBLK
  8
LAYER1
  0
BLOCK
  8
LAYER1
  2
Group36
 70
     0
 10
0
 20
0
 30
0
  0
INSERT
  8
LAYER1
  2
Group35
 10
0
 20
0
 30
0
  0
TEXT
  8
LAYER1
 62
     7
 10
4.8973
 20
0.5538
 30
0
 40
0.25
  1
NORTH
 50
0
999
Geneva
  0
ENDBLK
  8
LAYER1
  0
BLOCK
  8
LAYER1
  2
Group37
 70
     0
 10
0
 20
0
 30
0
  0
POLYLINE
  8
LAYER1
  6
CONTINUOUS
 62
     7
 66
     1
 70
     0
 40
0.0139
 41
0.0139
  0
VERTEX
  8
LAYER1
 10
0.3472
 20
0.5694
 30
0
 70
     0
  0
VERTEX
  8
LAYER1
 10
1.0694
 20
0.9305
 30
0
 70
     0
  0
VERTEX
  8
LAYER1
 10
1.7778
 20
0.5694
 30
0
 70
     0
  0
VERTEX
  8
LAYER1
 10
0.3472
 20
0.5694
 30
0
 70
     0
  0
SEQEND
  0
CIRCLE
  8
LAYER1
 10
1.0764
 20
0.5625
 30
0
 40
0.2292
  0
CIRCLE
  8
LAYER1
 10
1.0764
 20
0.5625
 30
0
 40
0.2292
  0
TEXT
  8
LAYER1
 62
     7
 10
0.9807
 20
0.5816
 30
0
 40
0.1806
  1
N
 50
0
999
Geneva
  0
POLYLINE
  8
LAYER1
  6
CONTINUOUS
 62
     7
 66
     1
 70
     0
 40
0.0139
 41
0.0139
  0
VERTEX
  8
LAYER1
 10
0.8472
 20
0.5694
 30
0
 70
     0
  0
VERTEX
  8
LAYER1
 10
0.8472
 20
0.5694
 30
0
 70
     0
  0
VERTEX
  8
LAYER1
 10
0.8472
 20
0.5972
 30
0
 70
     0
  0
VERTEX
  8
LAYER1
 10
0.8611
 20
0.6389
 30
0
 70
     0
  0
VERTEX
  8
LAYER1
 10
0.875
 20
0.6805
 30
0
 70
     0
  0
VERTEX
  8
LAYER1
 10
0.9028
 20
0.7083
 30
0
 70
     0
  0
VERTEX
  8
LAYER1
 10
0.9167
 20
0.7222
 30
0
 70
     0
  0
VERTEX
  8
LAYER1
 10
0.9306
 20
0.7361
 30
0
 70
     0
  0
VERTEX
  8
LAYER1
 10
0.9583
 20
0.7639
 30
0
 70
     0
  0
VERTEX
  8
LAYER1
 10
1
 20
0.7778
 30
0
 70
     0
  0
VERTEX
  8
LAYER1
 10
1.0417
 20
0.7917
 30
0
 70
     0
  0
VERTEX
  8
LAYER1
 10
1.0694
 20
0.7917
 30
0
 70
     0
  0
VERTEX
  8
LAYER1
 10
1.0972
 20
0.7917
 30
0
 70
     0
  0
VERTEX
  8
LAYER1
 10
1.1389
 20
0.7778
 30
0
 70
     0
  0
VERTEX
  8
LAYER1
 10
1.1806
 20
0.7639
 30
0
 70
     0
  0
VERTEX
  8
LAYER1
 10
1.2083
 20
0.7361
 30
0
 70
     0
  0
VERTEX
  8
LAYER1
 10
1.2222
 20
0.7222
 30
0
 70
     0
  0
VERTEX
  8
LAYER1
 10
1.2361
 20
0.7083
 30
0
 70
     0
  0
VERTEX
  8
LAYER1
 10
1.2639
 20
0.6805
 30
0
 70
     0
  0
VERTEX
  8
LAYER1
 10
1.2778
 20
0.6389
 30
0
 70
     0
  0
VERTEX
  8
LAYER1
 10
1.2917
 20
0.5972
 30
0
 70
     0
  0
VERTEX
  8
LAYER1
 10
1.2917
 20
0.5694
 30
0
 70
     0
  0
VERTEX
  8
LAYER1
 10
1.2917
 20
0.5694
 30
0
 70
     0
  0
SEQEND
  0
ENDBLK
  8
LAYER1
  0
BLOCK
  8
LAYER1
  2
Group38
 70
     0
 10
0
 20
0
 30
0
  0
POLYLINE
  8
LAYER1
  6
CONTINUOUS
 62
     7
 66
     1
 70
     0
 40
0.0139
 41
0.0139
  0
VERTEX
  8
LAYER1
 10
1.8472
 20
0.5694
 30
0
 70
     0
  0
VERTEX
  8
LAYER1
 10
2.5694
 20
0.9305
 30
0
 70
     0
  0
VERTEX
  8
LAYER1
 10
3.2778
 20
0.5694
 30
0
 70
     0
  0
VERTEX
  8
LAYER1
 10
1.8472
 20
0.5694
 30
0
 70
     0
  0
SEQEND
  0
CIRCLE
  8
LAYER1
 10
2.5764
 20
0.5625
 30
0
 40
0.2292
  0
CIRCLE
  8
LAYER1
 10
2.5764
 20
0.5625
 30
0
 40
0.2292
  0
TEXT
  8
LAYER1
 62
     7
 10
2.4807
 20
0.5816
 30
0
 40
0.1806
  1
N
 50
0
999
Geneva
  0
POLYLINE
  8
LAYER1
  6
CONTINUOUS
 62
     7
 66
     1
 70
     0
 40
0.0139
 41
0.0139
  0
VERTEX
  8
LAYER1
 10
2.3472
 20
0.5694
 30
0
 70
     0
  0
VERTEX
  8
LAYER1
 10
2.3472
 20
0.5694
 30
0
 70
     0
  0
VERTEX
  8
LAYER1
 10
2.3472
 20
0.5972
 30
0
 70
     0
  0
VERTEX
  8
LAYER1
 10
2.3611
 20
0.6389
 30
0
 70
     0
  0
VERTEX
  8
LAYER1
 10
2.375
 20
0.6805
 30
0
 70
     0
  0
VERTEX
  8
LAYER1
 10
2.4028
 20
0.7083
 30
0
 70
     0
  0
VERTEX
  8
LAYER1
 10
2.4167
 20
0.7222
 30
0
 70
     0
  0
VERTEX
  8
LAYER1
 10
2.4306
 20
0.7361
 30
0
 70
     0
  0
VERTEX
  8
LAYER1
 10
2.4583
 20
0.7639
 30
0
 70
     0
  0
VERTEX
  8
LAYER1
 10
2.5
 20
0.7778
 30
0
 70
     0
  0
VERTEX
  8
LAYER1
 10
2.5417
 20
0.7917
 30
0
 70
     0
  0
VERTEX
  8
LAYER1
 10
2.5694
 20
0.7917
 30
0
 70
     0
  0
VERTEX
  8
LAYER1
 10
2.5972
 20
0.7917
 30
0
 70
     0
  0
VERTEX
  8
LAYER1
 10
2.6389
 20
0.7778
 30
0
 70
     0
  0
VERTEX
  8
LAYER1
 10
2.6806
 20
0.7639
 30
0
 70
     0
  0
VERTEX
  8
LAYER1
 10
2.7083
 20
0.7361
 30
0
 70
     0
  0
VERTEX
  8
LAYER1
 10
2.7222
 20
0.7222
 30
0
 70
     0
  0
VERTEX
  8
LAYER1
 10
2.7361
 20
0.7083
 30
0
 70
     0
  0
VERTEX
  8
LAYER1
 10
2.7639
 20
0.6805
 30
0
 70
     0
  0
VERTEX
  8
LAYER1
 10
2.7778
 20
0.6389
 30
0
 70
     0
  0
VERTEX
  8
LAYER1
 10
2.7917
 20
0.5972
 30
0
 70
     0
  0
VERTEX
  8
LAYER1
 10
2.7917
 20
0.5694
 30
0
 70
     0
  0
VERTEX
  8
LAYER1
 10
2.7917
 20
0.5694
 30
0
 70
     0
  0
SEQEND
  0
ENDBLK
  8
LAYER1
  0
BLOCK
  8
LAYER1
  2
Group39
 70
     0
 10
0
 20
0
 30
0
  0
SOLID
  8
LAYER1
 62
     7
 10
9.25
 20
10.2778
 30
0
 11
9.5139
 21
10.2778
 31
0
 12
9.25
 22
10.1389
 32
0
 13
9.5139
 23
10.1389
 33
0
  0
POLYLINE
  8
LAYER1
  6
CONTINUOUS
 62
     7
 66
     1
 70
     0
 40
0.0039
 41
0.0039
  0
VERTEX
  8
LAYER1
 10
9.5
 20
10.1528
 30
0
 70
     0
  0
VERTEX
  8
LAYER1
 10
9.7639
 20
10.1528
 30
0
 70
     0
  0
VERTEX
  8
LAYER1
 10
9.7639
 20
10.0139
 30
0
 70
     0
  0
VERTEX
  8
LAYER1
 10
9.5
 20
10.0139
 30
0
 70
     0
  0
VERTEX
  8
LAYER1
 10
9.5
 20
10.1528
 30
0
 70
     0
  0
SEQEND
  0
SOLID
  8
LAYER1
 62
     7
 10
9.75
 20
10.2778
 30
0
 11
10.0139
 21
10.2778
 31
0
 12
9.75
 22
10.1389
 32
0
 13
10.0139
 23
10.1389
 33
0
  0
POLYLINE
  8
LAYER1
  6
CONTINUOUS
 62
     7
 66
     1
 70
     0
 40
0.0039
 41
0.0039
  0
VERTEX
  8
LAYER1
 10
10
 20
10.1528
 30
0
 70
     0
  0
VERTEX
  8
LAYER1
 10
10.2639
 20
10.1528
 30
0
 70
     0
  0
VERTEX
  8
LAYER1
 10
10.2639
 20
10.0139
 30
0
 70
     0
  0
VERTEX
  8
LAYER1
 10
10
 20
10.0139
 30
0
 70
     0
  0
VERTEX
  8
LAYER1
 10
10
 20
10.1528
 30
0
 70
     0
  0
SEQEND
  0
SOLID
  8
LAYER1
 62
     7
 10
10.25
 20
10.2778
 30
0
 11
11.2639
 21
10.2778
 31
0
 12
10.25
 22
10.1389
 32
0
 13
11.2639
 23
10.1389
 33
0
  0
ENDBLK
  8
LAYER1
  0
BLOCK
  8
LAYER1
  2
Group40
 70
     0
 10
0
 20
0
 30
0
  0
INSERT
  8
LAYER1
  2
Group39
 10
0
 20
0
 30
0
  0
TEXT
  8
LAYER1
 62
     7
 10
9.2029
 20
10.3455
 30
0
 40
0.0972
  1
0
 50
0
999
Geneva
  0
TEXT
  8
LAYER1
 62
     7
 10
9.689
 20
10.3455
 30
0
 40
0.0972
  1
5
 50
0
999
Geneva
  0
TEXT
  8
LAYER1
 62
     7
 10
10.1473
 20
10.3455
 30
0
 40
0.0972
  1
10
 50
0
999
Geneva
  0
TEXT
  8
LAYER1
 62
     7
 10
11.189
 20
10.3455
 30
0
 40
0.0972
  1
20
 50
0
999
Geneva
  0
TEXT
  8
LAYER1
 62
     7
 10
10.3418
 20
10.026
 30
0
 40
0.0972
  1
Scale in Feet
 50
0
999
Geneva
  0
TEXT
  8
LAYER1
 62
     7
 10
8.6473
 20
10.1233
 30
0
 40
0.0972
  1
1"=10'
 50
0
999
Geneva
  0
ENDBLK
  8
LAYER1
  0
BLOCK
  8
LAYER1
  2
Group41
 70
     0
 10
0
 20
0
 30
0
  0
SOLID
  8
LAYER1
 62
     7
 10
9.25
 20
9.5
 30
0
 11
9.5139
 21
9.5
 31
0
 12
9.25
 22
9.3611
 32
0
 13
9.5139
 23
9.3611
 33
0
  0
POLYLINE
  8
LAYER1
  6
CONTINUOUS
 62
     7
 66
     1
 70
     0
 40
0.0039
 41
0.0039
  0
VERTEX
  8
LAYER1
 10
9.5
 20
9.375
 30
0
 70
     0
  0
VERTEX
  8
LAYER1
 10
9.7639
 20
9.375
 30
0
 70
     0
  0
VERTEX
  8
LAYER1
 10
9.7639
 20
9.2361
 30
0
 70
     0
  0
VERTEX
  8
LAYER1
 10
9.5
 20
9.2361
 30
0
 70
     0
  0
VERTEX
  8
LAYER1
 10
9.5
 20
9.375
 30
0
 70
     0
  0
SEQEND
  0
SOLID
  8
LAYER1
 62
     7
 10
9.75
 20
9.5
 30
0
 11
10.0139
 21
9.5
 31
0
 12
9.75
 22
9.3611
 32
0
 13
10.0139
 23
9.3611
 33
0
  0
POLYLINE
  8
LAYER1
  6
CONTINUOUS
 62
     7
 66
     1
 70
     0
 40
0.0039
 41
0.0039
  0
VERTEX
  8
LAYER1
 10
10
 20
9.375
 30
0
 70
     0
  0
VERTEX
  8
LAYER1
 10
10.2639
 20
9.375
 30
0
 70
     0
  0
VERTEX
  8
LAYER1
 10
10.2639
 20
9.2361
 30
0
 70
     0
  0
VERTEX
  8
LAYER1
 10
10
 20
9.2361
 30
0
 70
     0
  0
VERTEX
  8
LAYER1
 10
10
 20
9.375
 30
0
 70
     0
  0
SEQEND
  0
SOLID
  8
LAYER1
 62
     7
 10
10.25
 20
9.5
 30
0
 11
11.2639
 21
9.5
 31
0
 12
10.25
 22
9.3611
 32
0
 13
11.2639
 23
9.3611
 33
0
  0
ENDBLK
  8
LAYER1
  0
BLOCK
  8
LAYER1
  2
Group42
 70
     0
 10
0
 20
0
 30
0
  0
INSERT
  8
LAYER1
  2
Group41
 10
0
 20
0
 30
0
  0
TEXT
  8
LAYER1
 62
     7
 10
9.2029
 20
9.5677
 30
0
 40
0.0972
  1
0
 50
0
999
Geneva
  0
TEXT
  8
LAYER1
 62
     7
 10
9.6473
 20
9.5677
 30
0
 40
0.0972
  1
10
 50
0
999
Geneva
  0
TEXT
  8
LAYER1
 62
     7
 10
10.1473
 20
9.5677
 30
0
 40
0.0972
  1
20
 50
0
999
Geneva
  0
TEXT
  8
LAYER1
 62
     7
 10
11.189
 20
9.5677
 30
0
 40
0.0972
  1
40
 50
0
999
Geneva
  0
TEXT
  8
LAYER1
 62
     7
 10
10.3418
 20
9.2483
 30
0
 40
0.0972
  1
Scale in Feet
 50
0
999
Geneva
  0
TEXT
  8
LAYER1
 62
     7
 10
8.6473
 20
9.3455
 30
0
 40
0.0972
  1
1"=20'
 50
0
999
Geneva
  0
ENDBLK
  8
LAYER1
  0
BLOCK
  8
LAYER1
  2
Group43
 70
     0
 10
0
 20
0
 30
0
  0
SOLID
  8
LAYER1
 62
     7
 10
9.25
 20
8.7222
 30
0
 11
9.5139
 21
8.7222
 31
0
 12
9.25
 22
8.5833
 32
0
 13
9.5139
 23
8.5833
 33
0
  0
POLYLINE
  8
LAYER1
  6
CONTINUOUS
 62
     7
 66
     1
 70
     0
 40
0.0039
 41
0.0039
  0
VERTEX
  8
LAYER1
 10
9.5
 20
8.5972
 30
0
 70
     0
  0
VERTEX
  8
LAYER1
 10
9.7639
 20
8.5972
 30
0
 70
     0
  0
VERTEX
  8
LAYER1
 10
9.7639
 20
8.4583
 30
0
 70
     0
  0
VERTEX
  8
LAYER1
 10
9.5
 20
8.4583
 30
0
 70
     0
  0
VERTEX
  8
LAYER1
 10
9.5
 20
8.5972
 30
0
 70
     0
  0
SEQEND
  0
SOLID
  8
LAYER1
 62
     7
 10
9.75
 20
8.7222
 30
0
 11
10.0139
 21
8.7222
 31
0
 12
9.75
 22
8.5833
 32
0
 13
10.0139
 23
8.5833
 33
0
  0
POLYLINE
  8
LAYER1
  6
CONTINUOUS
 62
     7
 66
     1
 70
     0
 40
0.0039
 41
0.0039
  0
VERTEX
  8
LAYER1
 10
10
 20
8.5972
 30
0
 70
     0
  0
VERTEX
  8
LAYER1
 10
10.2639
 20
8.5972
 30
0
 70
     0
  0
VERTEX
  8
LAYER1
 10
10.2639
 20
8.4583
 30
0
 70
     0
  0
VERTEX
  8
LAYER1
 10
10
 20
8.4583
 30
0
 70
     0
  0
VERTEX
  8
LAYER1
 10
10
 20
8.5972
 30
0
 70
     0
  0
SEQEND
  0
SOLID
  8
LAYER1
 62
     7
 10
10.25
 20
8.7222
 30
0
 11
11.2639
 21
8.7222
 31
0
 12
10.25
 22
8.5833
 32
0
 13
11.2639
 23
8.5833
 33
0
  0
ENDBLK
  8
LAYER1
  0
BLOCK
  8
LAYER1
  2
Group44
 70
     0
 10
0
 20
0
 30
0
  0
INSERT
  8
LAYER1
  2
Group43
 10
0
 20
0
 30
0
  0
TEXT
  8
LAYER1
 62
     7
 10
9.2029
 20
8.7899
 30
0
 40
0.0972
  1
0
 50
0
999
Geneva
  0
TEXT
  8
LAYER1
 62
     7
 10
9.6473
 20
8.7899
 30
0
 40
0.0972
  1
15
 50
0
999
Geneva
  0
TEXT
  8
LAYER1
 62
     7
 10
10.1473
 20
8.7899
 30
0
 40
0.0972
  1
30
 50
0
999
Geneva
  0
TEXT
  8
LAYER1
 62
     7
 10
11.189
 20
8.7899
 30
0
 40
0.0972
  1
60
 50
0
999
Geneva
  0
TEXT
  8
LAYER1
 62
     7
 10
10.3418
 20
8.4705
 30
0
 40
0.0972
  1
Scale in Feet
 50
0
999
Geneva
  0
TEXT
  8
LAYER1
 62
     7
 10
8.6473
 20
8.5677
 30
0
 40
0.0972
  1
1"=30'
 50
0
999
Geneva
  0
ENDBLK
  8
LAYER1
  0
BLOCK
  8
LAYER1
  2
Group45
 70
     0
 10
0
 20
0
 30
0
  0
SOLID
  8
LAYER1
 62
     7
 10
9.25
 20
7.9444
 30
0
 11
9.5139
 21
7.9444
 31
0
 12
9.25
 22
7.8055
 32
0
 13
9.5139
 23
7.8055
 33
0
  0
POLYLINE
  8
LAYER1
  6
CONTINUOUS
 62
     7
 66
     1
 70
     0
 40
0.0039
 41
0.0039
  0
VERTEX
  8
LAYER1
 10
9.5
 20
7.8194
 30
0
 70
     0
  0
VERTEX
  8
LAYER1
 10
9.7639
 20
7.8194
 30
0
 70
     0
  0
VERTEX
  8
LAYER1
 10
9.7639
 20
7.6805
 30
0
 70
     0
  0
VERTEX
  8
LAYER1
 10
9.5
 20
7.6805
 30
0
 70
     0
  0
VERTEX
  8
LAYER1
 10
9.5
 20
7.8194
 30
0
 70
     0
  0
SEQEND
  0
SOLID
  8
LAYER1
 62
     7
 10
9.75
 20
7.9444
 30
0
 11
10.0139
 21
7.9444
 31
0
 12
9.75
 22
7.8055
 32
0
 13
10.0139
 23
7.8055
 33
0
  0
POLYLINE
  8
LAYER1
  6
CONTINUOUS
 62
     7
 66
     1
 70
     0
 40
0.0039
 41
0.0039
  0
VERTEX
  8
LAYER1
 10
10
 20
7.8194
 30
0
 70
     0
  0
VERTEX
  8
LAYER1
 10
10.2639
 20
7.8194
 30
0
 70
     0
  0
VERTEX
  8
LAYER1
 10
10.2639
 20
7.6805
 30
0
 70
     0
  0
VERTEX
  8
LAYER1
 10
10
 20
7.6805
 30
0
 70
     0
  0
VERTEX
  8
LAYER1
 10
10
 20
7.8194
 30
0
 70
     0
  0
SEQEND
  0
SOLID
  8
LAYER1
 62
     7
 10
10.25
 20
7.9444
 30
0
 11
11.2639
 21
7.9444
 31
0
 12
10.25
 22
7.8055
 32
0
 13
11.2639
 23
7.8055
 33
0
  0
ENDBLK
  8
LAYER1
  0
BLOCK
  8
LAYER1
  2
Group46
 70
     0
 10
0
 20
0
 30
0
  0
INSERT
  8
LAYER1
  2
Group45
 10
0
 20
0
 30
0
  0
TEXT
  8
LAYER1
 62
     7
 10
9.2029
 20
8.0121
 30
0
 40
0.0972
  1
0
 50
0
999
Geneva
  0
TEXT
  8
LAYER1
 62
     7
 10
9.6473
 20
8.0121
 30
0
 40
0.0972
  1
20
 50
0
999
Geneva
  0
TEXT
  8
LAYER1
 62
     7
 10
10.1473
 20
8.0121
 30
0
 40
0.0972
  1
40
 50
0
999
Geneva
  0
TEXT
  8
LAYER1
 62
     7
 10
11.189
 20
8.0121
 30
0
 40
0.0972
  1
80
 50
0
999
Geneva
  0
TEXT
  8
LAYER1
 62
     7
 10
10.3418
 20
7.6927
 30
0
 40
0.0972
  1
Scale in Feet
 50
0
999
Geneva
  0
TEXT
  8
LAYER1
 62
     7
 10
8.6473
 20
7.7899
 30
0
 40
0.0972
  1
1"=40'
 50
0
999
Geneva
  0
ENDBLK
  8
LAYER1
  0
BLOCK
  8
LAYER1
  2
Group47
 70
     0
 10
0
 20
0
 30
0
  0
SOLID
  8
LAYER1
 62
     7
 10
9.25
 20
7.1667
 30
0
 11
9.5139
 21
7.1667
 31
0
 12
9.25
 22
7.0278
 32
0
 13
9.5139
 23
7.0278
 33
0
  0
POLYLINE
  8
LAYER1
  6
CONTINUOUS
 62
     7
 66
     1
 70
     0
 40
0.0039
 41
0.0039
  0
VERTEX
  8
LAYER1
 10
9.5
 20
7.0417
 30
0
 70
     0
  0
VERTEX
  8
LAYER1
 10
9.7639
 20
7.0417
 30
0
 70
     0
  0
VERTEX
  8
LAYER1
 10
9.7639
 20
6.9028
 30
0
 70
     0
  0
VERTEX
  8
LAYER1
 10
9.5
 20
6.9028
 30
0
 70
     0
  0
VERTEX
  8
LAYER1
 10
9.5
 20
7.0417
 30
0
 70
     0
  0
SEQEND
  0
SOLID
  8
LAYER1
 62
     7
 10
9.75
 20
7.1667
 30
0
 11
10.0139
 21
7.1667
 31
0
 12
9.75
 22
7.0278
 32
0
 13
10.0139
 23
7.0278
 33
0
  0
POLYLINE
  8
LAYER1
  6
CONTINUOUS
 62
     7
 66
     1
 70
     0
 40
0.0039
 41
0.0039
  0
VERTEX
  8
LAYER1
 10
10
 20
7.0417
 30
0
 70
     0
  0
VERTEX
  8
LAYER1
 10
10.2639
 20
7.0417
 30
0
 70
     0
  0
VERTEX
  8
LAYER1
 10
10.2639
 20
6.9028
 30
0
 70
     0
  0
VERTEX
  8
LAYER1
 10
10
 20
6.9028
 30
0
 70
     0
  0
VERTEX
  8
LAYER1
 10
10
 20
7.0417
 30
0
 70
     0
  0
SEQEND
  0
SOLID
  8
LAYER1
 62
     7
 10
10.25
 20
7.1667
 30
0
 11
11.2639
 21
7.1667
 31
0
 12
10.25
 22
7.0278
 32
0
 13
11.2639
 23
7.0278
 33
0
  0
ENDBLK
  8
LAYER1
  0
BLOCK
  8
LAYER1
  2
Group48
 70
     0
 10
0
 20
0
 30
0
  0
INSERT
  8
LAYER1
  2
Group47
 10
0
 20
0
 30
0
  0
TEXT
  8
LAYER1
 62
     7
 10
9.2029
 20
7.2344
 30
0
 40
0.0972
  1
0
 50
0
999
Geneva
  0
TEXT
  8
LAYER1
 62
     7
 10
9.6473
 20
7.2344
 30
0
 40
0.0972
  1
25
 50
0
999
Geneva
  0
TEXT
  8
LAYER1
 62
     7
 10
10.1473
 20
7.2344
 30
0
 40
0.0972
  1
50
 50
0
999
Geneva
  0
TEXT
  8
LAYER1
 62
     7
 10
11.1473
 20
7.2344
 30
0
 40
0.0972
  1
100
 50
0
999
Geneva
  0
TEXT
  8
LAYER1
 62
     7
 10
10.3418
 20
6.9149
 30
0
 40
0.0972
  1
Scale in Feet
 50
0
999
Geneva
  0
TEXT
  8
LAYER1
 62
     7
 10
8.6473
 20
6.9983
 30
0
 40
0.0972
  1
1"=50'
 50
0
999
Geneva
  0
ENDBLK
  8
LAYER1
  0
BLOCK
  8
LAYER1
  2
Group49
 70
     0
 10
0
 20
0
 30
0
  0
SOLID
  8
LAYER1
 62
     7
 10
9.25
 20
6.3889
 30
0
 11
9.5139
 21
6.3889
 31
0
 12
9.25
 22
6.25
 32
0
 13
9.5139
 23
6.25
 33
0
  0
POLYLINE
  8
LAYER1
  6
CONTINUOUS
 62
     7
 66
     1
 70
     0
 40
0.0039
 41
0.0039
  0
VERTEX
  8
LAYER1
 10
9.5
 20
6.2639
 30
0
 70
     0
  0
VERTEX
  8
LAYER1
 10
9.7639
 20
6.2639
 30
0
 70
     0
  0
VERTEX
  8
LAYER1
 10
9.7639
 20
6.125
 30
0
 70
     0
  0
VERTEX
  8
LAYER1
 10
9.5
 20
6.125
 30
0
 70
     0
  0
VERTEX
  8
LAYER1
 10
9.5
 20
6.2639
 30
0
 70
     0
  0
SEQEND
  0
SOLID
  8
LAYER1
 62
     7
 10
9.75
 20
6.3889
 30
0
 11
10.0139
 21
6.3889
 31
0
 12
9.75
 22
6.25
 32
0
 13
10.0139
 23
6.25
 33
0
  0
POLYLINE
  8
LAYER1
  6
CONTINUOUS
 62
     7
 66
     1
 70
     0
 40
0.0039
 41
0.0039
  0
VERTEX
  8
LAYER1
 10
10
 20
6.2639
 30
0
 70
     0
  0
VERTEX
  8
LAYER1
 10
10.2639
 20
6.2639
 30
0
 70
     0
  0
VERTEX
  8
LAYER1
 10
10.2639
 20
6.125
 30
0
 70
     0
  0
VERTEX
  8
LAYER1
 10
10
 20
6.125
 30
0
 70
     0
  0
VERTEX
  8
LAYER1
 10
10
 20
6.2639
 30
0
 70
     0
  0
SEQEND
  0
SOLID
  8
LAYER1
 62
     7
 10
10.25
 20
6.3889
 30
0
 11
11.2639
 21
6.3889
 31
0
 12
10.25
 22
6.25
 32
0
 13
11.2639
 23
6.25
 33
0
  0
ENDBLK
  8
LAYER1
  0
BLOCK
  8
LAYER1
  2
Group50
 70
     0
 10
0
 20
0
 30
0
  0
INSERT
  8
LAYER1
  2
Group49
 10
0
 20
0
 30
0
  0
TEXT
  8
LAYER1
 62
     7
 10
9.2029
 20
6.4566
 30
0
 40
0.0972
  1
0
 50
0
999
Geneva
  0
TEXT
  8
LAYER1
 62
     7
 10
9.6473
 20
6.4566
 30
0
 40
0.0972
  1
30
 50
0
999
Geneva
  0
TEXT
  8
LAYER1
 62
     7
 10
10.1473
 20
6.4566
 30
0
 40
0.0972
  1
60
 50
0
999
Geneva
  0
TEXT
  8
LAYER1
 62
     7
 10
11.1473
 20
6.4566
 30
0
 40
0.0972
  1
120
 50
0
999
Geneva
  0
TEXT
  8
LAYER1
 62
     7
 10
10.3418
 20
6.1371
 30
0
 40
0.0972
  1
Scale in Feet
 50
0
999
Geneva
  0
TEXT
  8
LAYER1
 62
     7
 10
8.6473
 20
6.2205
 30
0
 40
0.0972
  1
1"=60'
 50
0
999
Geneva
  0
ENDBLK
  8
LAYER1
  0
BLOCK
  8
LAYER1
  2
Group51
 70
     0
 10
0
 20
0
 30
0
  0
SOLID
  8
LAYER1
 62
     7
 10
9.25
 20
5.5972
 30
0
 11
9.5139
 21
5.5972
 31
0
 12
9.25
 22
5.4583
 32
0
 13
9.5139
 23
5.4583
 33
0
  0
POLYLINE
  8
LAYER1
  6
CONTINUOUS
 62
     7
 66
     1
 70
     0
 40
0.0039
 41
0.0039
  0
VERTEX
  8
LAYER1
 10
9.5
 20
5.4722
 30
0
 70
     0
  0
VERTEX
  8
LAYER1
 10
9.7639
 20
5.4722
 30
0
 70
     0
  0
VERTEX
  8
LAYER1
 10
9.7639
 20
5.3333
 30
0
 70
     0
  0
VERTEX
  8
LAYER1
 10
9.5
 20
5.3333
 30
0
 70
     0
  0
VERTEX
  8
LAYER1
 10
9.5
 20
5.4722
 30
0
 70
     0
  0
SEQEND
  0
SOLID
  8
LAYER1
 62
     7
 10
9.75
 20
5.5972
 30
0
 11
10.0139
 21
5.5972
 31
0
 12
9.75
 22
5.4583
 32
0
 13
10.0139
 23
5.4583
 33
0
  0
POLYLINE
  8
LAYER1
  6
CONTINUOUS
 62
     7
 66
     1
 70
     0
 40
0.0039
 41
0.0039
  0
VERTEX
  8
LAYER1
 10
10
 20
5.4722
 30
0
 70
     0
  0
VERTEX
  8
LAYER1
 10
10.2639
 20
5.4722
 30
0
 70
     0
  0
VERTEX
  8
LAYER1
 10
10.2639
 20
5.3333
 30
0
 70
     0
  0
VERTEX
  8
LAYER1
 10
10
 20
5.3333
 30
0
 70
     0
  0
VERTEX
  8
LAYER1
 10
10
 20
5.4722
 30
0
 70
     0
  0
SEQEND
  0
SOLID
  8
LAYER1
 62
     7
 10
10.25
 20
5.5972
 30
0
 11
11.2639
 21
5.5972
 31
0
 12
10.25
 22
5.4583
 32
0
 13
11.2639
 23
5.4583
 33
0
  0
ENDBLK
  8
LAYER1
  0
BLOCK
  8
LAYER1
  2
Group52
 70
     0
 10
0
 20
0
 30
0
  0
INSERT
  8
LAYER1
  2
Group51
 10
0
 20
0
 30
0
  0
TEXT
  8
LAYER1
 62
     7
 10
9.2029
 20
5.6649
 30
0
 40
0.0972
  1
0
 50
0
999
Geneva
  0
TEXT
  8
LAYER1
 62
     7
 10
9.6473
 20
5.6649
 30
0
 40
0.0972
  1
40
 50
0
999
Geneva
  0
TEXT
  8
LAYER1
 62
     7
 10
10.1473
 20
5.6649
 30
0
 40
0.0972
  1
80
 50
0
999
Geneva
  0
TEXT
  8
LAYER1
 62
     7
 10
11.1473
 20
5.6649
 30
0
 40
0.0972
  1
160
 50
0
999
Geneva
  0
TEXT
  8
LAYER1
 62
     7
 10
10.3418
 20
5.3455
 30
0
 40
0.0972
  1
Scale in Feet
 50
0
999
Geneva
  0
TEXT
  8
LAYER1
 62
     7
 10
8.6473
 20
5.4427
 30
0
 40
0.0972
  1
1"=80'
 50
0
999
Geneva
  0
ENDBLK
  8
LAYER1
  0
BLOCK
  8
LAYER1
  2
Group53
 70
     0
 10
0
 20
0
 30
0
  0
SOLID
  8
LAYER1
 62
     7
 10
9.25
 20
4.8194
 30
0
 11
9.5139
 21
4.8194
 31
0
 12
9.25
 22
4.6805
 32
0
 13
9.5139
 23
4.6805
 33
0
  0
POLYLINE
  8
LAYER1
  6
CONTINUOUS
 62
     7
 66
     1
 70
     0
 40
0.0039
 41
0.0039
  0
VERTEX
  8
LAYER1
 10
9.5
 20
4.6944
 30
0
 70
     0
  0
VERTEX
  8
LAYER1
 10
9.7639
 20
4.6944
 30
0
 70
     0
  0
VERTEX
  8
LAYER1
 10
9.7639
 20
4.5555
 30
0
 70
     0
  0
VERTEX
  8
LAYER1
 10
9.5
 20
4.5555
 30
0
 70
     0
  0
VERTEX
  8
LAYER1
 10
9.5
 20
4.6944
 30
0
 70
     0
  0
SEQEND
  0
SOLID
  8
LAYER1
 62
     7
 10
9.75
 20
4.8194
 30
0
 11
10.0139
 21
4.8194
 31
0
 12
9.75
 22
4.6805
 32
0
 13
10.0139
 23
4.6805
 33
0
  0
POLYLINE
  8
LAYER1
  6
CONTINUOUS
 62
     7
 66
     1
 70
     0
 40
0.0039
 41
0.0039
  0
VERTEX
  8
LAYER1
 10
10
 20
4.6944
 30
0
 70
     0
  0
VERTEX
  8
LAYER1
 10
10.2639
 20
4.6944
 30
0
 70
     0
  0
VERTEX
  8
LAYER1
 10
10.2639
 20
4.5555
 30
0
 70
     0
  0
VERTEX
  8
LAYER1
 10
10
 20
4.5555
 30
0
 70
     0
  0
VERTEX
  8
LAYER1
 10
10
 20
4.6944
 30
0
 70
     0
  0
SEQEND
  0
SOLID
  8
LAYER1
 62
     7
 10
10.25
 20
4.8194
 30
0
 11
11.2639
 21
4.8194
 31
0
 12
10.25
 22
4.6805
 32
0
 13
11.2639
 23
4.6805
 33
0
  0
ENDBLK
  8
LAYER1
  0
BLOCK
  8
LAYER1
  2
Group54
 70
     0
 10
0
 20
0
 30
0
  0
INSERT
  8
LAYER1
  2
Group53
 10
0
 20
0
 30
0
  0
TEXT
  8
LAYER1
 62
     7
 10
9.2029
 20
4.8871
 30
0
 40
0.0972
  1
0
 50
0
999
Geneva
  0
TEXT
  8
LAYER1
 62
     7
 10
9.6473
 20
4.8871
 30
0
 40
0.0972
  1
50
 50
0
999
Geneva
  0
TEXT
  8
LAYER1
 62
     7
 10
10.1057
 20
4.8871
 30
0
 40
0.0972
  1
100
 50
0
999
Geneva
  0
TEXT
  8
LAYER1
 62
     7
 10
11.1473
 20
4.8871
 30
0
 40
0.0972
  1
200
 50
0
999
Geneva
  0
TEXT
  8
LAYER1
 62
     7
 10
10.3418
 20
4.5677
 30
0
 40
0.0972
  1
Scale in Feet
 50
0
999
Geneva
  0
TEXT
  8
LAYER1
 62
     7
 10
8.5918
 20
4.6649
 30
0
 40
0.0972
  1
1"=100'
 50
0
999
Geneva
  0
ENDBLK
  8
LAYER1
  0
BLOCK
  8
LAYER1
  2
Group55
 70
     0
 10
0
 20
0
 30
0
  0
SOLID
  8
LAYER1
 62
     7
 10
9.25
 20
4.0417
 30
0
 11
9.5139
 21
4.0417
 31
0
 12
9.25
 22
3.9028
 32
0
 13
9.5139
 23
3.9028
 33
0
  0
POLYLINE
  8
LAYER1
  6
CONTINUOUS
 62
     7
 66
     1
 70
     0
 40
0.0039
 41
0.0039
  0
VERTEX
  8
LAYER1
 10
9.5
 20
3.9167
 30
0
 70
     0
  0
VERTEX
  8
LAYER1
 10
9.7639
 20
3.9167
 30
0
 70
     0
  0
VERTEX
  8
LAYER1
 10
9.7639
 20
3.7778
 30
0
 70
     0
  0
VERTEX
  8
LAYER1
 10
9.5
 20
3.7778
 30
0
 70
     0
  0
VERTEX
  8
LAYER1
 10
9.5
 20
3.9167
 30
0
 70
     0
  0
SEQEND
  0
SOLID
  8
LAYER1
 62
     7
 10
9.75
 20
4.0417
 30
0
 11
10.0139
 21
4.0417
 31
0
 12
9.75
 22
3.9028
 32
0
 13
10.0139
 23
3.9028
 33
0
  0
POLYLINE
  8
LAYER1
  6
CONTINUOUS
 62
     7
 66
     1
 70
     0
 40
0.0039
 41
0.0039
  0
VERTEX
  8
LAYER1
 10
10
 20
3.9167
 30
0
 70
     0
  0
VERTEX
  8
LAYER1
 10
10.2639
 20
3.9167
 30
0
 70
     0
  0
VERTEX
  8
LAYER1
 10
10.2639
 20
3.7778
 30
0
 70
     0
  0
VERTEX
  8
LAYER1
 10
10
 20
3.7778
 30
0
 70
     0
  0
VERTEX
  8
LAYER1
 10
10
 20
3.9167
 30
0
 70
     0
  0
SEQEND
  0
SOLID
  8
LAYER1
 62
     7
 10
10.25
 20
4.0417
 30
0
 11
11.2639
 21
4.0417
 31
0
 12
10.25
 22
3.9028
 32
0
 13
11.2639
 23
3.9028
 33
0
  0
ENDBLK
  8
LAYER1
  0
BLOCK
  8
LAYER1
  2
Group56
 70
     0
 10
0
 20
0
 30
0
  0
INSERT
  8
LAYER1
  2
Group55
 10
0
 20
0
 30
0
  0
TEXT
  8
LAYER1
 62
     7
 10
9.2029
 20
4.1094
 30
0
 40
0.0972
  1
0
 50
0
999
Geneva
  0
TEXT
  8
LAYER1
 62
     7
 10
9.5918
 20
4.1094
 30
0
 40
0.0972
  1
100
 50
0
999
Geneva
  0
TEXT
  8
LAYER1
 62
     7
 10
10.1057
 20
4.1094
 30
0
 40
0.0972
  1
200
 50
0
999
Geneva
  0
TEXT
  8
LAYER1
 62
     7
 10
10.3418
 20
3.7899
 30
0
 40
0.0972
  1
Scale in Feet
 50
0
999
Geneva
  0
TEXT
  8
LAYER1
 62
     7
 10
8.5918
 20
3.8871
 30
0
 40
0.0972
  1
1"=200'
 50
0
999
Geneva
  0
ENDBLK
  8
LAYER1
  0
BLOCK
  8
LAYER1
  2
Group57
 70
     0
 10
0
 20
0
 30
0
  0
SOLID
  8
LAYER1
 62
     7
 10
9.25
 20
3.2639
 30
0
 11
9.5139
 21
3.2639
 31
0
 12
9.25
 22
3.125
 32
0
 13
9.5139
 23
3.125
 33
0
  0
POLYLINE
  8
LAYER1
  6
CONTINUOUS
 62
     7
 66
     1
 70
     0
 40
0.0039
 41
0.0039
  0
VERTEX
  8
LAYER1
 10
9.5
 20
3.1389
 30
0
 70
     0
  0
VERTEX
  8
LAYER1
 10
9.7639
 20
3.1389
 30
0
 70
     0
  0
VERTEX
  8
LAYER1
 10
9.7639
 20
3
 30
0
 70
     0
  0
VERTEX
  8
LAYER1
 10
9.5
 20
3
 30
0
 70
     0
  0
VERTEX
  8
LAYER1
 10
9.5
 20
3.1389
 30
0
 70
     0
  0
SEQEND
  0
SOLID
  8
LAYER1
 62
     7
 10
9.75
 20
3.2639
 30
0
 11
10.0139
 21
3.2639
 31
0
 12
9.75
 22
3.125
 32
0
 13
10.0139
 23
3.125
 33
0
  0
POLYLINE
  8
LAYER1
  6
CONTINUOUS
 62
     7
 66
     1
 70
     0
 40
0.0039
 41
0.0039
  0
VERTEX
  8
LAYER1
 10
10
 20
3.1389
 30
0
 70
     0
  0
VERTEX
  8
LAYER1
 10
10.2639
 20
3.1389
 30
0
 70
     0
  0
VERTEX
  8
LAYER1
 10
10.2639
 20
3
 30
0
 70
     0
  0
VERTEX
  8
LAYER1
 10
10
 20
3
 30
0
 70
     0
  0
VERTEX
  8
LAYER1
 10
10
 20
3.1389
 30
0
 70
     0
  0
SEQEND
  0
SOLID
  8
LAYER1
 62
     7
 10
10.25
 20
3.2639
 30
0
 11
11.2639
 21
3.2639
 31
0
 12
10.25
 22
3.125
 32
0
 13
11.2639
 23
3.125
 33
0
  0
ENDBLK
  8
LAYER1
  0
BLOCK
  8
LAYER1
  2
Group58
 70
     0
 10
0
 20
0
 30
0
  0
INSERT
  8
LAYER1
  2
Group57
 10
0
 20
0
 30
0
  0
TEXT
  8
LAYER1
 62
     7
 10
9.2029
 20
3.3316
 30
0
 40
0.0972
  1
0
 50
0
999
Geneva
  0
TEXT
  8
LAYER1
 62
     7
 10
9.5918
 20
3.3316
 30
0
 40
0.0972
  1
150
 50
0
999
Geneva
  0
TEXT
  8
LAYER1
 62
     7
 10
10.1057
 20
3.3316
 30
0
 40
0.0972
  1
300
 50
0
999
Geneva
  0
TEXT
  8
LAYER1
 62
     7
 10
11.1473
 20
3.3316
 30
0
 40
0.0972
  1
600
 50
0
999
Geneva
  0
TEXT
  8
LAYER1
 62
     7
 10
10.3418
 20
3.0121
 30
0
 40
0.0972
  1
Scale in Feet
 50
0
999
Geneva
  0
TEXT
  8
LAYER1
 62
     7
 10
8.5918
 20
3.1094
 30
0
 40
0.0972
  1
1"=300'
 50
0
999
Geneva
  0
ENDBLK
  8
LAYER1
  0
BLOCK
  8
LAYER1
  2
Group59
 70
     0
 10
0
 20
0
 30
0
  0
SOLID
  8
LAYER1
 62
     7
 10
9.25
 20
2.4861
 30
0
 11
9.5139
 21
2.4861
 31
0
 12
9.25
 22
2.3472
 32
0
 13
9.5139
 23
2.3472
 33
0
  0
POLYLINE
  8
LAYER1
  6
CONTINUOUS
 62
     7
 66
     1
 70
     0
 40
0.0039
 41
0.0039
  0
VERTEX
  8
LAYER1
 10
9.5
 20
2.3611
 30
0
 70
     0
  0
VERTEX
  8
LAYER1
 10
9.7639
 20
2.3611
 30
0
 70
     0
  0
VERTEX
  8
LAYER1
 10
9.7639
 20
2.2222
 30
0
 70
     0
  0
VERTEX
  8
LAYER1
 10
9.5
 20
2.2222
 30
0
 70
     0
  0
VERTEX
  8
LAYER1
 10
9.5
 20
2.3611
 30
0
 70
     0
  0
SEQEND
  0
SOLID
  8
LAYER1
 62
     7
 10
9.75
 20
2.4861
 30
0
 11
10.0139
 21
2.4861
 31
0
 12
9.75
 22
2.3472
 32
0
 13
10.0139
 23
2.3472
 33
0
  0
POLYLINE
  8
LAYER1
  6
CONTINUOUS
 62
     7
 66
     1
 70
     0
 40
0.0039
 41
0.0039
  0
VERTEX
  8
LAYER1
 10
10
 20
2.3611
 30
0
 70
     0
  0
VERTEX
  8
LAYER1
 10
10.2639
 20
2.3611
 30
0
 70
     0
  0
VERTEX
  8
LAYER1
 10
10.2639
 20
2.2222
 30
0
 70
     0
  0
VERTEX
  8
LAYER1
 10
10
 20
2.2222
 30
0
 70
     0
  0
VERTEX
  8
LAYER1
 10
10
 20
2.3611
 30
0
 70
     0
  0
SEQEND
  0
SOLID
  8
LAYER1
 62
     7
 10
10.25
 20
2.4861
 30
0
 11
11.2639
 21
2.4861
 31
0
 12
10.25
 22
2.3472
 32
0
 13
11.2639
 23
2.3472
 33
0
  0
ENDBLK
  8
LAYER1
  0
BLOCK
  8
LAYER1
  2
Group60
 70
     0
 10
0
 20
0
 30
0
  0
INSERT
  8
LAYER1
  2
Group59
 10
0
 20
0
 30
0
  0
TEXT
  8
LAYER1
 62
     7
 10
9.2029
 20
2.5538
 30
0
 40
0.0972
  1
0
 50
0
999
Geneva
  0
TEXT
  8
LAYER1
 62
     7
 10
9.5918
 20
2.5538
 30
0
 40
0.0972
  1
200
 50
0
999
Geneva
  0
TEXT
  8
LAYER1
 62
     7
 10
10.1057
 20
2.5538
 30
0
 40
0.0972
  1
400
 50
0
999
Geneva
  0
TEXT
  8
LAYER1
 62
     7
 10
11.1473
 20
2.5538
 30
0
 40
0.0972
  1
800
 50
0
999
Geneva
  0
TEXT
  8
LAYER1
 62
     7
 10
10.3418
 20
2.2344
 30
0
 40
0.0972
  1
Scale in Feet
 50
0
999
Geneva
  0
TEXT
  8
LAYER1
 62
     7
 10
8.5918
 20
2.3177
 30
0
 40
0.0972
  1
1"=400'
 50
0
999
Geneva
  0
ENDBLK
  8
LAYER1
  0
BLOCK
  8
LAYER1
  2
Group61
 70
     0
 10
0
 20
0
 30
0
  0
SOLID
  8
LAYER1
 62
     7
 10
9.25
 20
1.7083
 30
0
 11
9.5139
 21
1.7083
 31
0
 12
9.25
 22
1.5694
 32
0
 13
9.5139
 23
1.5694
 33
0
  0
POLYLINE
  8
LAYER1
  6
CONTINUOUS
 62
     7
 66
     1
 70
     0
 40
0.0039
 41
0.0039
  0
VERTEX
  8
LAYER1
 10
9.5
 20
1.5833
 30
0
 70
     0
  0
VERTEX
  8
LAYER1
 10
9.7639
 20
1.5833
 30
0
 70
     0
  0
VERTEX
  8
LAYER1
 10
9.7639
 20
1.4444
 30
0
 70
     0
  0
VERTEX
  8
LAYER1
 10
9.5
 20
1.4444
 30
0
 70
     0
  0
VERTEX
  8
LAYER1
 10
9.5
 20
1.5833
 30
0
 70
     0
  0
SEQEND
  0
SOLID
  8
LAYER1
 62
     7
 10
9.75
 20
1.7083
 30
0
 11
10.0139
 21
1.7083
 31
0
 12
9.75
 22
1.5694
 32
0
 13
10.0139
 23
1.5694
 33
0
  0
POLYLINE
  8
LAYER1
  6
CONTINUOUS
 62
     7
 66
     1
 70
     0
 40
0.0039
 41
0.0039
  0
VERTEX
  8
LAYER1
 10
10
 20
1.5833
 30
0
 70
     0
  0
VERTEX
  8
LAYER1
 10
10.2639
 20
1.5833
 30
0
 70
     0
  0
VERTEX
  8
LAYER1
 10
10.2639
 20
1.4444
 30
0
 70
     0
  0
VERTEX
  8
LAYER1
 10
10
 20
1.4444
 30
0
 70
     0
  0
VERTEX
  8
LAYER1
 10
10
 20
1.5833
 30
0
 70
     0
  0
SEQEND
  0
SOLID
  8
LAYER1
 62
     7
 10
10.25
 20
1.7083
 30
0
 11
11.2639
 21
1.7083
 31
0
 12
10.25
 22
1.5694
 32
0
 13
11.2639
 23
1.5694
 33
0
  0
ENDBLK
  8
LAYER1
  0
BLOCK
  8
LAYER1
  2
Group62
 70
     0
 10
0
 20
0
 30
0
  0
INSERT
  8
LAYER1
  2
Group61
 10
0
 20
0
 30
0
  0
TEXT
  8
LAYER1
 62
     7
 10
9.2029
 20
1.776
 30
0
 40
0.0972
  1
0
 50
0
999
Geneva
  0
TEXT
  8
LAYER1
 62
     7
 10
9.5918
 20
1.776
 30
0
 40
0.0972
  1
250
 50
0
999
Geneva
  0
TEXT
  8
LAYER1
 62
     7
 10
10.1057
 20
1.776
 30
0
 40
0.0972
  1
500
 50
0
999
Geneva
  0
TEXT
  8
LAYER1
 62
     7
 10
11.0918
 20
1.776
 30
0
 40
0.0972
  1
1000
 50
0
999
Geneva
  0
TEXT
  8
LAYER1
 62
     7
 10
10.3418
 20
1.4566
 30
0
 40
0.0972
  1
Scale in Feet
 50
0
999
Geneva
  0
TEXT
  8
LAYER1
 62
     7
 10
8.5918
 20
1.5399
 30
0
 40
0.0972
  1
1"=500'
 50
0
999
Geneva
  0
ENDBLK
  8
LAYER1
  0
BLOCK
  8
LAYER1
  2
Group63
 70
     0
 10
0
 20
0
 30
0
  0
SOLID
  8
LAYER1
 62
     7
 10
9.25
 20
0.9167
 30
0
 11
9.5139
 21
0.9167
 31
0
 12
9.25
 22
0.7778
 32
0
 13
9.5139
 23
0.7778
 33
0
  0
POLYLINE
  8
LAYER1
  6
CONTINUOUS
 62
     7
 66
     1
 70
     0
 40
0.0039
 41
0.0039
  0
VERTEX
  8
LAYER1
 10
9.5
 20
0.7917
 30
0
 70
     0
  0
VERTEX
  8
LAYER1
 10
9.7639
 20
0.7917
 30
0
 70
     0
  0
VERTEX
  8
LAYER1
 10
9.7639
 20
0.6528
 30
0
 70
     0
  0
VERTEX
  8
LAYER1
 10
9.5
 20
0.6528
 30
0
 70
     0
  0
VERTEX
  8
LAYER1
 10
9.5
 20
0.7917
 30
0
 70
     0
  0
SEQEND
  0
SOLID
  8
LAYER1
 62
     7
 10
9.75
 20
0.9167
 30
0
 11
10.0139
 21
0.9167
 31
0
 12
9.75
 22
0.7778
 32
0
 13
10.0139
 23
0.7778
 33
0
  0
POLYLINE
  8
LAYER1
  6
CONTINUOUS
 62
     7
 66
     1
 70
     0
 40
0.0039
 41
0.0039
  0
VERTEX
  8
LAYER1
 10
10
 20
0.7917
 30
0
 70
     0
  0
VERTEX
  8
LAYER1
 10
10.2639
 20
0.7917
 30
0
 70
     0
  0
VERTEX
  8
LAYER1
 10
10.2639
 20
0.6528
 30
0
 70
     0
  0
VERTEX
  8
LAYER1
 10
10
 20
0.6528
 30
0
 70
     0
  0
VERTEX
  8
LAYER1
 10
10
 20
0.7917
 30
0
 70
     0
  0
SEQEND
  0
SOLID
  8
LAYER1
 62
     7
 10
10.25
 20
0.9167
 30
0
 11
11.2639
 21
0.9167
 31
0
 12
10.25
 22
0.7778
 32
0
 13
11.2639
 23
0.7778
 33
0
  0
ENDBLK
  8
LAYER1
  0
BLOCK
  8
LAYER1
  2
Group64
 70
     0
 10
0
 20
0
 30
0
  0
INSERT
  8
LAYER1
  2
Group63
 10
0
 20
0
 30
0
  0
TEXT
  8
LAYER1
 62
     7
 10
9.2029
 20
0.9844
 30
0
 40
0.0972
  1
0
 50
0
999
Geneva
  0
TEXT
  8
LAYER1
 62
     7
 10
9.5918
 20
0.9844
 30
0
 40
0.0972
  1
500
 50
0
999
Geneva
  0
TEXT
  8
LAYER1
 62
     7
 10
10.0501
 20
0.9844
 30
0
 40
0.0972
  1
1000
 50
0
999
Geneva
  0
TEXT
  8
LAYER1
 62
     7
 10
11.0918
 20
0.9844
 30
0
 40
0.0972
  1
2000
 50
0
999
Geneva
  0
TEXT
  8
LAYER1
 62
     7
 10
10.3418
 20
0.6649
 30
0
 40
0.0972
  1
Scale in Feet
 50
0
999
Geneva
  0
TEXT
  8
LAYER1
 62
     7
 10
8.4807
 20
0.7621
 30
0
 40
0.0972
  1
1"=1000'
 50
0
999
Geneva
  0
ENDBLK
  8
LAYER1
  0
BLOCK
  8
LAYER1
  2
Group65
 70
     0
 10
0
 20
0
 30
0
  0
SOLID
  8
LAYER1
 62
     7
 10
12.1528
 20
10.2778
 30
0
 11
12.4167
 21
10.2778
 31
0
 12
12.1528
 22
10.1389
 32
0
 13
12.4167
 23
10.1389
 33
0
  0
SOLID
  8
LAYER1
 62
     7
 10
12.4028
 20
10.1528
 30
0
 11
12.6667
 21
10.1528
 31
0
 12
12.4028
 22
10.0139
 32
0
 13
12.6667
 23
10.0139
 33
0
  0
SOLID
  8
LAYER1
 62
     7
 10
12.6528
 20
10.2778
 30
0
 11
12.9167
 21
10.2778
 31
0
 12
12.6528
 22
10.1389
 32
0
 13
12.9167
 23
10.1389
 33
0
  0
SOLID
  8
LAYER1
 62
     7
 10
12.9028
 20
10.1528
 30
0
 11
13.1667
 21
10.1528
 31
0
 12
12.9028
 22
10.0139
 32
0
 13
13.1667
 23
10.0139
 33
0
  0
SOLID
  8
LAYER1
 62
     7
 10
13.1667
 20
10.2778
 30
0
 11
14.1806
 21
10.2778
 31
0
 12
13.1667
 22
10.1389
 32
0
 13
14.1806
 23
10.1389
 33
0
  0
TEXT
  8
LAYER1
 62
     7
 10
13.2723
 20
10.0677
 30
0
 40
0.0833
  1
Scale in Feet
 50
0
999
Geneva
  0
POLYLINE
  8
LAYER1
  6
CONTINUOUS
 62
     7
 66
     1
 70
     0
 40
0.0039
 41
0.0039
  0
VERTEX
  8
LAYER1
 10
12.1528
 20
10.2778
 30
0
 70
     0
  0
VERTEX
  8
LAYER1
 10
14.1667
 20
10.2778
 30
0
 70
     0
  0
VERTEX
  8
LAYER1
 10
14.1667
 20
10.0139
 30
0
 70
     0
  0
VERTEX
  8
LAYER1
 10
12.1528
 20
10.0139
 30
0
 70
     0
  0
VERTEX
  8
LAYER1
 10
12.1528
 20
10.2778
 30
0
 70
     0
  0
SEQEND
  0
ENDBLK
  8
LAYER1
  0
BLOCK
  8
LAYER1
  2
Group66
 70
     0
 10
0
 20
0
 30
0
  0
TEXT
  8
LAYER1
 62
     7
 10
12.1196
 20
10.3455
 30
0
 40
0.0972
  1
0
 50
0
999
Geneva
  0
TEXT
  8
LAYER1
 62
     7
 10
12.6057
 20
10.3455
 30
0
 40
0.0972
  1
5
 50
0
999
Geneva
  0
TEXT
  8
LAYER1
 62
     7
 10
13.064
 20
10.3455
 30
0
 40
0.0972
  1
10
 50
0
999
Geneva
  0
TEXT
  8
LAYER1
 62
     7
 10
14.1057
 20
10.3455
 30
0
 40
0.0972
  1
20
 50
0
999
Geneva
  0
TEXT
  8
LAYER1
 62
     7
 10
11.564
 20
10.1233
 30
0
 40
0.0972
  1
1"=10'
 50
0
999
Geneva
  0
INSERT
  8
LAYER1
  2
Group65
 10
0
 20
0
 30
0
  0
ENDBLK
  8
LAYER1
  0
BLOCK
  8
LAYER1
  2
Group67
 70
     0
 10
0
 20
0
 30
0
  0
SOLID
  8
LAYER1
 62
     7
 10
12.1528
 20
9.5
 30
0
 11
12.4167
 21
9.5
 31
0
 12
12.1528
 22
9.3611
 32
0
 13
12.4167
 23
9.3611
 33
0
  0
SOLID
  8
LAYER1
 62
     7
 10
12.4028
 20
9.375
 30
0
 11
12.6667
 21
9.375
 31
0
 12
12.4028
 22
9.2361
 32
0
 13
12.6667
 23
9.2361
 33
0
  0
SOLID
  8
LAYER1
 62
     7
 10
12.6528
 20
9.5
 30
0
 11
12.9167
 21
9.5
 31
0
 12
12.6528
 22
9.3611
 32
0
 13
12.9167
 23
9.3611
 33
0
  0
SOLID
  8
LAYER1
 62
     7
 10
12.9028
 20
9.375
 30
0
 11
13.1667
 21
9.375
 31
0
 12
12.9028
 22
9.2361
 32
0
 13
13.1667
 23
9.2361
 33
0
  0
SOLID
  8
LAYER1
 62
     7
 10
13.1667
 20
9.5
 30
0
 11
14.1806
 21
9.5
 31
0
 12
13.1667
 22
9.3611
 32
0
 13
14.1806
 23
9.3611
 33
0
  0
TEXT
  8
LAYER1
 62
     7
 10
13.2723
 20
9.2899
 30
0
 40
0.0833
  1
Scale in Feet
 50
0
999
Geneva
  0
POLYLINE
  8
LAYER1
  6
CONTINUOUS
 62
     7
 66
     1
 70
     0
 40
0.0039
 41
0.0039
  0
VERTEX
  8
LAYER1
 10
12.1528
 20
9.5
 30
0
 70
     0
  0
VERTEX
  8
LAYER1
 10
14.1667
 20
9.5
 30
0
 70
     0
  0
VERTEX
  8
LAYER1
 10
14.1667
 20
9.2361
 30
0
 70
     0
  0
VERTEX
  8
LAYER1
 10
12.1528
 20
9.2361
 30
0
 70
     0
  0
VERTEX
  8
LAYER1
 10
12.1528
 20
9.5
 30
0
 70
     0
  0
SEQEND
  0
ENDBLK
  8
LAYER1
  0
BLOCK
  8
LAYER1
  2
Group68
 70
     0
 10
0
 20
0
 30
0
  0
TEXT
  8
LAYER1
 62
     7
 10
12.1196
 20
9.5677
 30
0
 40
0.0972
  1
0
 50
0
999
Geneva
  0
TEXT
  8
LAYER1
 62
     7
 10
12.564
 20
9.5677
 30
0
 40
0.0972
  1
10
 50
0
999
Geneva
  0
TEXT
  8
LAYER1
 62
     7
 10
13.064
 20
9.5677
 30
0
 40
0.0972
  1
20
 50
0
999
Geneva
  0
TEXT
  8
LAYER1
 62
     7
 10
14.1057
 20
9.5677
 30
0
 40
0.0972
  1
40
 50
0
999
Geneva
  0
TEXT
  8
LAYER1
 62
     7
 10
11.564
 20
9.3455
 30
0
 40
0.0972
  1
1"=20'
 50
0
999
Geneva
  0
INSERT
  8
LAYER1
  2
Group67
 10
0
 20
0
 30
0
  0
ENDBLK
  8
LAYER1
  0
BLOCK
  8
LAYER1
  2
Group69
 70
     0
 10
0
 20
0
 30
0
  0
SOLID
  8
LAYER1
 62
     7
 10
12.1528
 20
8.7222
 30
0
 11
12.4167
 21
8.7222
 31
0
 12
12.1528
 22
8.5833
 32
0
 13
12.4167
 23
8.5833
 33
0
  0
SOLID
  8
LAYER1
 62
     7
 10
12.4028
 20
8.5972
 30
0
 11
12.6667
 21
8.5972
 31
0
 12
12.4028
 22
8.4583
 32
0
 13
12.6667
 23
8.4583
 33
0
  0
SOLID
  8
LAYER1
 62
     7
 10
12.6528
 20
8.7222
 30
0
 11
12.9167
 21
8.7222
 31
0
 12
12.6528
 22
8.5833
 32
0
 13
12.9167
 23
8.5833
 33
0
  0
SOLID
  8
LAYER1
 62
     7
 10
12.9028
 20
8.5972
 30
0
 11
13.1667
 21
8.5972
 31
0
 12
12.9028
 22
8.4583
 32
0
 13
13.1667
 23
8.4583
 33
0
  0
SOLID
  8
LAYER1
 62
     7
 10
13.1667
 20
8.7222
 30
0
 11
14.1806
 21
8.7222
 31
0
 12
13.1667
 22
8.5833
 32
0
 13
14.1806
 23
8.5833
 33
0
  0
TEXT
  8
LAYER1
 62
     7
 10
13.2723
 20
8.5121
 30
0
 40
0.0833
  1
Scale in Feet
 50
0
999
Geneva
  0
POLYLINE
  8
LAYER1
  6
CONTINUOUS
 62
     7
 66
     1
 70
     0
 40
0.0039
 41
0.0039
  0
VERTEX
  8
LAYER1
 10
12.1528
 20
8.7222
 30
0
 70
     0
  0
VERTEX
  8
LAYER1
 10
14.1667
 20
8.7222
 30
0
 70
     0
  0
VERTEX
  8
LAYER1
 10
14.1667
 20
8.4583
 30
0
 70
     0
  0
VERTEX
  8
LAYER1
 10
12.1528
 20
8.4583
 30
0
 70
     0
  0
VERTEX
  8
LAYER1
 10
12.1528
 20
8.7222
 30
0
 70
     0
  0
SEQEND
  0
ENDBLK
  8
LAYER1
  0
BLOCK
  8
LAYER1
  2
Group70
 70
     0
 10
0
 20
0
 30
0
  0
TEXT
  8
LAYER1
 62
     7
 10
12.1196
 20
8.7899
 30
0
 40
0.0972
  1
0
 50
0
999
Geneva
  0
TEXT
  8
LAYER1
 62
     7
 10
12.564
 20
8.7899
 30
0
 40
0.0972
  1
15
 50
0
999
Geneva
  0
TEXT
  8
LAYER1
 62
     7
 10
13.064
 20
8.7899
 30
0
 40
0.0972
  1
30
 50
0
999
Geneva
  0
TEXT
  8
LAYER1
 62
     7
 10
14.1057
 20
8.7899
 30
0
 40
0.0972
  1
60
 50
0
999
Geneva
  0
TEXT
  8
LAYER1
 62
     7
 10
11.564
 20
8.5677
 30
0
 40
0.0972
  1
1"=30'
 50
0
999
Geneva
  0
INSERT
  8
LAYER1
  2
Group69
 10
0
 20
0
 30
0
  0
ENDBLK
  8
LAYER1
  0
BLOCK
  8
LAYER1
  2
Group71
 70
     0
 10
0
 20
0
 30
0
  0
SOLID
  8
LAYER1
 62
     7
 10
12.1528
 20
7.9444
 30
0
 11
12.4167
 21
7.9444
 31
0
 12
12.1528
 22
7.8055
 32
0
 13
12.4167
 23
7.8055
 33
0
  0
SOLID
  8
LAYER1
 62
     7
 10
12.4028
 20
7.8194
 30
0
 11
12.6667
 21
7.8194
 31
0
 12
12.4028
 22
7.6805
 32
0
 13
12.6667
 23
7.6805
 33
0
  0
SOLID
  8
LAYER1
 62
     7
 10
12.6528
 20
7.9444
 30
0
 11
12.9167
 21
7.9444
 31
0
 12
12.6528
 22
7.8055
 32
0
 13
12.9167
 23
7.8055
 33
0
  0
SOLID
  8
LAYER1
 62
     7
 10
12.9028
 20
7.8194
 30
0
 11
13.1667
 21
7.8194
 31
0
 12
12.9028
 22
7.6805
 32
0
 13
13.1667
 23
7.6805
 33
0
  0
SOLID
  8
LAYER1
 62
     7
 10
13.1667
 20
7.9444
 30
0
 11
14.1806
 21
7.9444
 31
0
 12
13.1667
 22
7.8055
 32
0
 13
14.1806
 23
7.8055
 33
0
  0
TEXT
  8
LAYER1
 62
     7
 10
13.2723
 20
7.7344
 30
0
 40
0.0833
  1
Scale in Feet
 50
0
999
Geneva
  0
POLYLINE
  8
LAYER1
  6
CONTINUOUS
 62
     7
 66
     1
 70
     0
 40
0.0039
 41
0.0039
  0
VERTEX
  8
LAYER1
 10
12.1528
 20
7.9444
 30
0
 70
     0
  0
VERTEX
  8
LAYER1
 10
14.1667
 20
7.9444
 30
0
 70
     0
  0
VERTEX
  8
LAYER1
 10
14.1667
 20
7.6805
 30
0
 70
     0
  0
VERTEX
  8
LAYER1
 10
12.1528
 20
7.6805
 30
0
 70
     0
  0
VERTEX
  8
LAYER1
 10
12.1528
 20
7.9444
 30
0
 70
     0
  0
SEQEND
  0
ENDBLK
  8
LAYER1
  0
BLOCK
  8
LAYER1
  2
Group72
 70
     0
 10
0
 20
0
 30
0
  0
TEXT
  8
LAYER1
 62
     7
 10
12.1196
 20
8.0121
 30
0
 40
0.0972
  1
0
 50
0
999
Geneva
  0
TEXT
  8
LAYER1
 62
     7
 10
12.564
 20
8.0121
 30
0
 40
0.0972
  1
20
 50
0
999
Geneva
  0
TEXT
  8
LAYER1
 62
     7
 10
13.064
 20
8.0121
 30
0
 40
0.0972
  1
40
 50
0
999
Geneva
  0
TEXT
  8
LAYER1
 62
     7
 10
14.1057
 20
8.0121
 30
0
 40
0.0972
  1
80
 50
0
999
Geneva
  0
TEXT
  8
LAYER1
 62
     7
 10
11.564
 20
7.7899
 30
0
 40
0.0972
  1
1"=40'
 50
0
999
Geneva
  0
INSERT
  8
LAYER1
  2
Group71
 10
0
 20
0
 30
0
  0
ENDBLK
  8
LAYER1
  0
BLOCK
  8
LAYER1
  2
Group73
 70
     0
 10
0
 20
0
 30
0
  0
SOLID
  8
LAYER1
 62
     7
 10
12.1528
 20
7.1667
 30
0
 11
12.4167
 21
7.1667
 31
0
 12
12.1528
 22
7.0278
 32
0
 13
12.4167
 23
7.0278
 33
0
  0
SOLID
  8
LAYER1
 62
     7
 10
12.4028
 20
7.0417
 30
0
 11
12.6667
 21
7.0417
 31
0
 12
12.4028
 22
6.9028
 32
0
 13
12.6667
 23
6.9028
 33
0
  0
SOLID
  8
LAYER1
 62
     7
 10
12.6528
 20
7.1667
 30
0
 11
12.9167
 21
7.1667
 31
0
 12
12.6528
 22
7.0278
 32
0
 13
12.9167
 23
7.0278
 33
0
  0
SOLID
  8
LAYER1
 62
     7
 10
12.9028
 20
7.0417
 30
0
 11
13.1667
 21
7.0417
 31
0
 12
12.9028
 22
6.9028
 32
0
 13
13.1667
 23
6.9028
 33
0
  0
SOLID
  8
LAYER1
 62
     7
 10
13.1667
 20
7.1667
 30
0
 11
14.1806
 21
7.1667
 31
0
 12
13.1667
 22
7.0278
 32
0
 13
14.1806
 23
7.0278
 33
0
  0
TEXT
  8
LAYER1
 62
     7
 10
13.2723
 20
6.9427
 30
0
 40
0.0833
  1
Scale in Feet
 50
0
999
Geneva
  0
POLYLINE
  8
LAYER1
  6
CONTINUOUS
 62
     7
 66
     1
 70
     0
 40
0.0039
 41
0.0039
  0
VERTEX
  8
LAYER1
 10
12.1528
 20
7.1667
 30
0
 70
     0
  0
VERTEX
  8
LAYER1
 10
14.1667
 20
7.1667
 30
0
 70
     0
  0
VERTEX
  8
LAYER1
 10
14.1667
 20
6.9028
 30
0
 70
     0
  0
VERTEX
  8
LAYER1
 10
12.1528
 20
6.9028
 30
0
 70
     0
  0
VERTEX
  8
LAYER1
 10
12.1528
 20
7.1667
 30
0
 70
     0
  0
SEQEND
  0
ENDBLK
  8
LAYER1
  0
BLOCK
  8
LAYER1
  2
Group74
 70
     0
 10
0
 20
0
 30
0
  0
TEXT
  8
LAYER1
 62
     7
 10
12.1196
 20
7.2344
 30
0
 40
0.0972
  1
0
 50
0
999
Geneva
  0
TEXT
  8
LAYER1
 62
     7
 10
12.564
 20
7.2344
 30
0
 40
0.0972
  1
25
 50
0
999
Geneva
  0
TEXT
  8
LAYER1
 62
     7
 10
13.064
 20
7.2344
 30
0
 40
0.0972
  1
50
 50
0
999
Geneva
  0
TEXT
  8
LAYER1
 62
     7
 10
14.064
 20
7.2344
 30
0
 40
0.0972
  1
100
 50
0
999
Geneva
  0
TEXT
  8
LAYER1
 62
     7
 10
11.564
 20
6.9983
 30
0
 40
0.0972
  1
1"=50'
 50
0
999
Geneva
  0
INSERT
  8
LAYER1
  2
Group73
 10
0
 20
0
 30
0
  0
ENDBLK
  8
LAYER1
  0
BLOCK
  8
LAYER1
  2
Group75
 70
     0
 10
0
 20
0
 30
0
  0
SOLID
  8
LAYER1
 62
     7
 10
12.1528
 20
6.3889
 30
0
 11
12.4167
 21
6.3889
 31
0
 12
12.1528
 22
6.25
 32
0
 13
12.4167
 23
6.25
 33
0
  0
SOLID
  8
LAYER1
 62
     7
 10
12.4028
 20
6.2639
 30
0
 11
12.6667
 21
6.2639
 31
0
 12
12.4028
 22
6.125
 32
0
 13
12.6667
 23
6.125
 33
0
  0
SOLID
  8
LAYER1
 62
     7
 10
12.6528
 20
6.3889
 30
0
 11
12.9167
 21
6.3889
 31
0
 12
12.6528
 22
6.25
 32
0
 13
12.9167
 23
6.25
 33
0
  0
SOLID
  8
LAYER1
 62
     7
 10
12.9028
 20
6.2639
 30
0
 11
13.1667
 21
6.2639
 31
0
 12
12.9028
 22
6.125
 32
0
 13
13.1667
 23
6.125
 33
0
  0
SOLID
  8
LAYER1
 62
     7
 10
13.1667
 20
6.3889
 30
0
 11
14.1806
 21
6.3889
 31
0
 12
13.1667
 22
6.25
 32
0
 13
14.1806
 23
6.25
 33
0
  0
TEXT
  8
LAYER1
 62
     7
 10
13.2723
 20
6.1649
 30
0
 40
0.0833
  1
Scale in Feet
 50
0
999
Geneva
  0
POLYLINE
  8
LAYER1
  6
CONTINUOUS
 62
     7
 66
     1
 70
     0
 40
0.0039
 41
0.0039
  0
VERTEX
  8
LAYER1
 10
12.1528
 20
6.3889
 30
0
 70
     0
  0
VERTEX
  8
LAYER1
 10
14.1667
 20
6.3889
 30
0
 70
     0
  0
VERTEX
  8
LAYER1
 10
14.1667
 20
6.125
 30
0
 70
     0
  0
VERTEX
  8
LAYER1
 10
12.1528
 20
6.125
 30
0
 70
     0
  0
VERTEX
  8
LAYER1
 10
12.1528
 20
6.3889
 30
0
 70
     0
  0
SEQEND
  0
ENDBLK
  8
LAYER1
  0
BLOCK
  8
LAYER1
  2
Group76
 70
     0
 10
0
 20
0
 30
0
  0
TEXT
  8
LAYER1
 62
     7
 10
12.1196
 20
6.4566
 30
0
 40
0.0972
  1
0
 50
0
999
Geneva
  0
TEXT
  8
LAYER1
 62
     7
 10
12.564
 20
6.4566
 30
0
 40
0.0972
  1
30
 50
0
999
Geneva
  0
TEXT
  8
LAYER1
 62
     7
 10
13.064
 20
6.4566
 30
0
 40
0.0972
  1
60
 50
0
999
Geneva
  0
TEXT
  8
LAYER1
 62
     7
 10
14.064
 20
6.4566
 30
0
 40
0.0972
  1
120
 50
0
999
Geneva
  0
TEXT
  8
LAYER1
 62
     7
 10
11.564
 20
6.2205
 30
0
 40
0.0972
  1
1"=60'
 50
0
999
Geneva
  0
INSERT
  8
LAYER1
  2
Group75
 10
0
 20
0
 30
0
  0
ENDBLK
  8
LAYER1
  0
BLOCK
  8
LAYER1
  2
Group77
 70
     0
 10
0
 20
0
 30
0
  0
SOLID
  8
LAYER1
 62
     7
 10
12.1528
 20
5.5972
 30
0
 11
12.4167
 21
5.5972
 31
0
 12
12.1528
 22
5.4583
 32
0
 13
12.4167
 23
5.4583
 33
0
  0
SOLID
  8
LAYER1
 62
     7
 10
12.4028
 20
5.4722
 30
0
 11
12.6667
 21
5.4722
 31
0
 12
12.4028
 22
5.3333
 32
0
 13
12.6667
 23
5.3333
 33
0
  0
SOLID
  8
LAYER1
 62
     7
 10
12.6528
 20
5.5972
 30
0
 11
12.9167
 21
5.5972
 31
0
 12
12.6528
 22
5.4583
 32
0
 13
12.9167
 23
5.4583
 33
0
  0
SOLID
  8
LAYER1
 62
     7
 10
12.9028
 20
5.4722
 30
0
 11
13.1667
 21
5.4722
 31
0
 12
12.9028
 22
5.3333
 32
0
 13
13.1667
 23
5.3333
 33
0
  0
SOLID
  8
LAYER1
 62
     7
 10
13.1667
 20
5.5972
 30
0
 11
14.1806
 21
5.5972
 31
0
 12
13.1667
 22
5.4583
 32
0
 13
14.1806
 23
5.4583
 33
0
  0
TEXT
  8
LAYER1
 62
     7
 10
13.2723
 20
5.3871
 30
0
 40
0.0833
  1
Scale in Feet
 50
0
999
Geneva
  0
POLYLINE
  8
LAYER1
  6
CONTINUOUS
 62
     7
 66
     1
 70
     0
 40
0.0039
 41
0.0039
  0
VERTEX
  8
LAYER1
 10
12.1528
 20
5.5972
 30
0
 70
     0
  0
VERTEX
  8
LAYER1
 10
14.1667
 20
5.5972
 30
0
 70
     0
  0
VERTEX
  8
LAYER1
 10
14.1667
 20
5.3333
 30
0
 70
     0
  0
VERTEX
  8
LAYER1
 10
12.1528
 20
5.3333
 30
0
 70
     0
  0
VERTEX
  8
LAYER1
 10
12.1528
 20
5.5972
 30
0
 70
     0
  0
SEQEND
  0
ENDBLK
  8
LAYER1
  0
BLOCK
  8
LAYER1
  2
Group78
 70
     0
 10
0
 20
0
 30
0
  0
TEXT
  8
LAYER1
 62
     7
 10
12.1196
 20
5.6649
 30
0
 40
0.0972
  1
0
 50
0
999
Geneva
  0
TEXT
  8
LAYER1
 62
     7
 10
12.564
 20
5.6649
 30
0
 40
0.0972
  1
40
 50
0
999
Geneva
  0
TEXT
  8
LAYER1
 62
     7
 10
13.064
 20
5.6649
 30
0
 40
0.0972
  1
80
 50
0
999
Geneva
  0
TEXT
  8
LAYER1
 62
     7
 10
14.064
 20
5.6649
 30
0
 40
0.0972
  1
160
 50
0
999
Geneva
  0
TEXT
  8
LAYER1
 62
     7
 10
11.564
 20
5.4427
 30
0
 40
0.0972
  1
1"=80'
 50
0
999
Geneva
  0
INSERT
  8
LAYER1
  2
Group77
 10
0
 20
0
 30
0
  0
ENDBLK
  8
LAYER1
  0
BLOCK
  8
LAYER1
  2
Group79
 70
     0
 10
0
 20
0
 30
0
  0
SOLID
  8
LAYER1
 62
     7
 10
12.1528
 20
4.8194
 30
0
 11
12.4167
 21
4.8194
 31
0
 12
12.1528
 22
4.6805
 32
0
 13
12.4167
 23
4.6805
 33
0
  0
SOLID
  8
LAYER1
 62
     7
 10
12.4028
 20
4.6944
 30
0
 11
12.6667
 21
4.6944
 31
0
 12
12.4028
 22
4.5555
 32
0
 13
12.6667
 23
4.5555
 33
0
  0
SOLID
  8
LAYER1
 62
     7
 10
12.6528
 20
4.8194
 30
0
 11
12.9167
 21
4.8194
 31
0
 12
12.6528
 22
4.6805
 32
0
 13
12.9167
 23
4.6805
 33
0
  0
SOLID
  8
LAYER1
 62
     7
 10
12.9028
 20
4.6944
 30
0
 11
13.1667
 21
4.6944
 31
0
 12
12.9028
 22
4.5555
 32
0
 13
13.1667
 23
4.5555
 33
0
  0
SOLID
  8
LAYER1
 62
     7
 10
13.1667
 20
4.8194
 30
0
 11
14.1806
 21
4.8194
 31
0
 12
13.1667
 22
4.6805
 32
0
 13
14.1806
 23
4.6805
 33
0
  0
TEXT
  8
LAYER1
 62
     7
 10
13.2723
 20
4.6094
 30
0
 40
0.0833
  1
Scale in Feet
 50
0
999
Geneva
  0
POLYLINE
  8
LAYER1
  6
CONTINUOUS
 62
     7
 66
     1
 70
     0
 40
0.0039
 41
0.0039
  0
VERTEX
  8
LAYER1
 10
12.1528
 20
4.8194
 30
0
 70
     0
  0
VERTEX
  8
LAYER1
 10
14.1667
 20
4.8194
 30
0
 70
     0
  0
VERTEX
  8
LAYER1
 10
14.1667
 20
4.5555
 30
0
 70
     0
  0
VERTEX
  8
LAYER1
 10
12.1528
 20
4.5555
 30
0
 70
     0
  0
VERTEX
  8
LAYER1
 10
12.1528
 20
4.8194
 30
0
 70
     0
  0
SEQEND
  0
ENDBLK
  8
LAYER1
  0
BLOCK
  8
LAYER1
  2
Group80
 70
     0
 10
0
 20
0
 30
0
  0
TEXT
  8
LAYER1
 62
     7
 10
12.1196
 20
4.8871
 30
0
 40
0.0972
  1
0
 50
0
999
Geneva
  0
TEXT
  8
LAYER1
 62
     7
 10
12.564
 20
4.8871
 30
0
 40
0.0972
  1
50
 50
0
999
Geneva
  0
TEXT
  8
LAYER1
 62
     7
 10
13.0223
 20
4.8871
 30
0
 40
0.0972
  1
100
 50
0
999
Geneva
  0
TEXT
  8
LAYER1
 62
     7
 10
14.064
 20
4.8871
 30
0
 40
0.0972
  1
200
 50
0
999
Geneva
  0
TEXT
  8
LAYER1
 62
     7
 10
11.5084
 20
4.6649
 30
0
 40
0.0972
  1
1"=100'
 50
0
999
Geneva
  0
INSERT
  8
LAYER1
  2
Group79
 10
0
 20
0
 30
0
  0
ENDBLK
  8
LAYER1
  0
BLOCK
  8
LAYER1
  2
Group81
 70
     0
 10
0
 20
0
 30
0
  0
SOLID
  8
LAYER1
 62
     7
 10
12.1528
 20
4.0417
 30
0
 11
12.4167
 21
4.0417
 31
0
 12
12.1528
 22
3.9028
 32
0
 13
12.4167
 23
3.9028
 33
0
  0
SOLID
  8
LAYER1
 62
     7
 10
12.4028
 20
3.9167
 30
0
 11
12.6667
 21
3.9167
 31
0
 12
12.4028
 22
3.7778
 32
0
 13
12.6667
 23
3.7778
 33
0
  0
SOLID
  8
LAYER1
 62
     7
 10
12.6528
 20
4.0417
 30
0
 11
12.9167
 21
4.0417
 31
0
 12
12.6528
 22
3.9028
 32
0
 13
12.9167
 23
3.9028
 33
0
  0
SOLID
  8
LAYER1
 62
     7
 10
12.9028
 20
3.9167
 30
0
 11
13.1667
 21
3.9167
 31
0
 12
12.9028
 22
3.7778
 32
0
 13
13.1667
 23
3.7778
 33
0
  0
SOLID
  8
LAYER1
 62
     7
 10
13.1667
 20
4.0417
 30
0
 11
14.1806
 21
4.0417
 31
0
 12
13.1667
 22
3.9028
 32
0
 13
14.1806
 23
3.9028
 33
0
  0
TEXT
  8
LAYER1
 62
     7
 10
13.2723
 20
3.8316
 30
0
 40
0.0833
  1
Scale in Feet
 50
0
999
Geneva
  0
POLYLINE
  8
LAYER1
  6
CONTINUOUS
 62
     7
 66
     1
 70
     0
 40
0.0039
 41
0.0039
  0
VERTEX
  8
LAYER1
 10
12.1528
 20
4.0417
 30
0
 70
     0
  0
VERTEX
  8
LAYER1
 10
14.1667
 20
4.0417
 30
0
 70
     0
  0
VERTEX
  8
LAYER1
 10
14.1667
 20
3.7778
 30
0
 70
     0
  0
VERTEX
  8
LAYER1
 10
12.1528
 20
3.7778
 30
0
 70
     0
  0
VERTEX
  8
LAYER1
 10
12.1528
 20
4.0417
 30
0
 70
     0
  0
SEQEND
  0
ENDBLK
  8
LAYER1
  0
BLOCK
  8
LAYER1
  2
Group82
 70
     0
 10
0
 20
0
 30
0
  0
TEXT
  8
LAYER1
 62
     7
 10
14.064
 20
4.1094
 30
0
 40
0.0972
  1
400
 50
0
999
Geneva
  0
TEXT
  8
LAYER1
 62
     7
 10
12.1196
 20
4.1094
 30
0
 40
0.0972
  1
0
 50
0
999
Geneva
  0
TEXT
  8
LAYER1
 62
     7
 10
12.5084
 20
4.1094
 30
0
 40
0.0972
  1
100
 50
0
999
Geneva
  0
TEXT
  8
LAYER1
 62
     7
 10
13.0223
 20
4.1094
 30
0
 40
0.0972
  1
200
 50
0
999
Geneva
  0
TEXT
  8
LAYER1
 62
     7
 10
11.5084
 20
3.8871
 30
0
 40
0.0972
  1
1"=200'
 50
0
999
Geneva
  0
INSERT
  8
LAYER1
  2
Group81
 10
0
 20
0
 30
0
  0
ENDBLK
  8
LAYER1
  0
BLOCK
  8
LAYER1
  2
Group83
 70
     0
 10
0
 20
0
 30
0
  0
SOLID
  8
LAYER1
 62
     7
 10
12.1528
 20
3.2639
 30
0
 11
12.4167
 21
3.2639
 31
0
 12
12.1528
 22
3.125
 32
0
 13
12.4167
 23
3.125
 33
0
  0
SOLID
  8
LAYER1
 62
     7
 10
12.4028
 20
3.1389
 30
0
 11
12.6667
 21
3.1389
 31
0
 12
12.4028
 22
3
 32
0
 13
12.6667
 23
3
 33
0
  0
SOLID
  8
LAYER1
 62
     7
 10
12.6528
 20
3.2639
 30
0
 11
12.9167
 21
3.2639
 31
0
 12
12.6528
 22
3.125
 32
0
 13
12.9167
 23
3.125
 33
0
  0
SOLID
  8
LAYER1
 62
     7
 10
12.9028
 20
3.1389
 30
0
 11
13.1667
 21
3.1389
 31
0
 12
12.9028
 22
3
 32
0
 13
13.1667
 23
3
 33
0
  0
SOLID
  8
LAYER1
 62
     7
 10
13.1667
 20
3.2639
 30
0
 11
14.1806
 21
3.2639
 31
0
 12
13.1667
 22
3.125
 32
0
 13
14.1806
 23
3.125
 33
0
  0
TEXT
  8
LAYER1
 62
     7
 10
13.2723
 20
3.0538
 30
0
 40
0.0833
  1
Scale in Feet
 50
0
999
Geneva
  0
POLYLINE
  8
LAYER1
  6
CONTINUOUS
 62
     7
 66
     1
 70
     0
 40
0.0039
 41
0.0039
  0
VERTEX
  8
LAYER1
 10
12.1528
 20
3.2639
 30
0
 70
     0
  0
VERTEX
  8
LAYER1
 10
14.1667
 20
3.2639
 30
0
 70
     0
  0
VERTEX
  8
LAYER1
 10
14.1667
 20
3
 30
0
 70
     0
  0
VERTEX
  8
LAYER1
 10
12.1528
 20
3
 30
0
 70
     0
  0
VERTEX
  8
LAYER1
 10
12.1528
 20
3.2639
 30
0
 70
     0
  0
SEQEND
  0
ENDBLK
  8
LAYER1
  0
BLOCK
  8
LAYER1
  2
Group84
 70
     0
 10
0
 20
0
 30
0
  0
TEXT
  8
LAYER1
 62
     7
 10
12.1196
 20
3.3316
 30
0
 40
0.0972
  1
0
 50
0
999
Geneva
  0
TEXT
  8
LAYER1
 62
     7
 10
12.5084
 20
3.3316
 30
0
 40
0.0972
  1
150
 50
0
999
Geneva
  0
TEXT
  8
LAYER1
 62
     7
 10
13.0223
 20
3.3316
 30
0
 40
0.0972
  1
300
 50
0
999
Geneva
  0
TEXT
  8
LAYER1
 62
     7
 10
14.064
 20
3.3316
 30
0
 40
0.0972
  1
600
 50
0
999
Geneva
  0
TEXT
  8
LAYER1
 62
     7
 10
11.5084
 20
3.1094
 30
0
 40
0.0972
  1
1"=300'
 50
0
999
Geneva
  0
INSERT
  8
LAYER1
  2
Group83
 10
0
 20
0
 30
0
  0
ENDBLK
  8
LAYER1
  0
BLOCK
  8
LAYER1
  2
Group85
 70
     0
 10
0
 20
0
 30
0
  0
SOLID
  8
LAYER1
 62
     7
 10
12.1528
 20
2.4861
 30
0
 11
12.4167
 21
2.4861
 31
0
 12
12.1528
 22
2.3472
 32
0
 13
12.4167
 23
2.3472
 33
0
  0
SOLID
  8
LAYER1
 62
     7
 10
12.4028
 20
2.3611
 30
0
 11
12.6667
 21
2.3611
 31
0
 12
12.4028
 22
2.2222
 32
0
 13
12.6667
 23
2.2222
 33
0
  0
SOLID
  8
LAYER1
 62
     7
 10
12.6528
 20
2.4861
 30
0
 11
12.9167
 21
2.4861
 31
0
 12
12.6528
 22
2.3472
 32
0
 13
12.9167
 23
2.3472
 33
0
  0
SOLID
  8
LAYER1
 62
     7
 10
12.9028
 20
2.3611
 30
0
 11
13.1667
 21
2.3611
 31
0
 12
12.9028
 22
2.2222
 32
0
 13
13.1667
 23
2.2222
 33
0
  0
SOLID
  8
LAYER1
 62
     7
 10
13.1667
 20
2.4861
 30
0
 11
14.1806
 21
2.4861
 31
0
 12
13.1667
 22
2.3472
 32
0
 13
14.1806
 23
2.3472
 33
0
  0
TEXT
  8
LAYER1
 62
     7
 10
13.2723
 20
2.276
 30
0
 40
0.0833
  1
Scale in Feet
 50
0
999
Geneva
  0
POLYLINE
  8
LAYER1
  6
CONTINUOUS
 62
     7
 66
     1
 70
     0
 40
0.0039
 41
0.0039
  0
VERTEX
  8
LAYER1
 10
12.1528
 20
2.4861
 30
0
 70
     0
  0
VERTEX
  8
LAYER1
 10
14.1667
 20
2.4861
 30
0
 70
     0
  0
VERTEX
  8
LAYER1
 10
14.1667
 20
2.2222
 30
0
 70
     0
  0
VERTEX
  8
LAYER1
 10
12.1528
 20
2.2222
 30
0
 70
     0
  0
VERTEX
  8
LAYER1
 10
12.1528
 20
2.4861
 30
0
 70
     0
  0
SEQEND
  0
ENDBLK
  8
LAYER1
  0
BLOCK
  8
LAYER1
  2
Group86
 70
     0
 10
0
 20
0
 30
0
  0
TEXT
  8
LAYER1
 62
     7
 10
12.1196
 20
2.5538
 30
0
 40
0.0972
  1
0
 50
0
999
Geneva
  0
TEXT
  8
LAYER1
 62
     7
 10
12.5084
 20
2.5538
 30
0
 40
0.0972
  1
200
 50
0
999
Geneva
  0
TEXT
  8
LAYER1
 62
     7
 10
13.0223
 20
2.5538
 30
0
 40
0.0972
  1
400
 50
0
999
Geneva
  0
TEXT
  8
LAYER1
 62
     7
 10
14.064
 20
2.5538
 30
0
 40
0.0972
  1
800
 50
0
999
Geneva
  0
TEXT
  8
LAYER1
 62
     7
 10
11.5084
 20
2.3177
 30
0
 40
0.0972
  1
1"=400'
 50
0
999
Geneva
  0
INSERT
  8
LAYER1
  2
Group85
 10
0
 20
0
 30
0
  0
ENDBLK
  8
LAYER1
  0
BLOCK
  8
LAYER1
  2
Group87
 70
     0
 10
0
 20
0
 30
0
  0
SOLID
  8
LAYER1
 62
     7
 10
12.1528
 20
1.7083
 30
0
 11
12.4167
 21
1.7083
 31
0
 12
12.1528
 22
1.5694
 32
0
 13
12.4167
 23
1.5694
 33
0
  0
SOLID
  8
LAYER1
 62
     7
 10
12.4028
 20
1.5833
 30
0
 11
12.6667
 21
1.5833
 31
0
 12
12.4028
 22
1.4444
 32
0
 13
12.6667
 23
1.4444
 33
0
  0
SOLID
  8
LAYER1
 62
     7
 10
12.6528
 20
1.7083
 30
0
 11
12.9167
 21
1.7083
 31
0
 12
12.6528
 22
1.5694
 32
0
 13
12.9167
 23
1.5694
 33
0
  0
SOLID
  8
LAYER1
 62
     7
 10
12.9028
 20
1.5833
 30
0
 11
13.1667
 21
1.5833
 31
0
 12
12.9028
 22
1.4444
 32
0
 13
13.1667
 23
1.4444
 33
0
  0
SOLID
  8
LAYER1
 62
     7
 10
13.1667
 20
1.7083
 30
0
 11
14.1806
 21
1.7083
 31
0
 12
13.1667
 22
1.5694
 32
0
 13
14.1806
 23
1.5694
 33
0
  0
TEXT
  8
LAYER1
 62
     7
 10
13.2723
 20
1.4844
 30
0
 40
0.0833
  1
Scale in Feet
 50
0
999
Geneva
  0
POLYLINE
  8
LAYER1
  6
CONTINUOUS
 62
     7
 66
     1
 70
     0
 40
0.0039
 41
0.0039
  0
VERTEX
  8
LAYER1
 10
12.1528
 20
1.7083
 30
0
 70
     0
  0
VERTEX
  8
LAYER1
 10
14.1667
 20
1.7083
 30
0
 70
     0
  0
VERTEX
  8
LAYER1
 10
14.1667
 20
1.4444
 30
0
 70
     0
  0
VERTEX
  8
LAYER1
 10
12.1528
 20
1.4444
 30
0
 70
     0
  0
VERTEX
  8
LAYER1
 10
12.1528
 20
1.7083
 30
0
 70
     0
  0
SEQEND
  0
ENDBLK
  8
LAYER1
  0
BLOCK
  8
LAYER1
  2
Group88
 70
     0
 10
0
 20
0
 30
0
  0
TEXT
  8
LAYER1
 62
     7
 10
12.1196
 20
1.776
 30
0
 40
0.0972
  1
0
 50
0
999
Geneva
  0
TEXT
  8
LAYER1
 62
     7
 10
12.5084
 20
1.776
 30
0
 40
0.0972
  1
250
 50
0
999
Geneva
  0
TEXT
  8
LAYER1
 62
     7
 10
13.0223
 20
1.776
 30
0
 40
0.0972
  1
500
 50
0
999
Geneva
  0
TEXT
  8
LAYER1
 62
     7
 10
14.0084
 20
1.776
 30
0
 40
0.0972
  1
1000
 50
0
999
Geneva
  0
TEXT
  8
LAYER1
 62
     7
 10
11.5084
 20
1.5399
 30
0
 40
0.0972
  1
1"=500'
 50
0
999
Geneva
  0
INSERT
  8
LAYER1
  2
Group87
 10
0
 20
0
 30
0
  0
ENDBLK
  8
LAYER1
  0
BLOCK
  8
LAYER1
  2
Group89
 70
     0
 10
0
 20
0
 30
0
  0
SOLID
  8
LAYER1
 62
     7
 10
12.1528
 20
0.9167
 30
0
 11
12.4167
 21
0.9167
 31
0
 12
12.1528
 22
0.7778
 32
0
 13
12.4167
 23
0.7778
 33
0
  0
SOLID
  8
LAYER1
 62
     7
 10
12.4028
 20
0.7917
 30
0
 11
12.6667
 21
0.7917
 31
0
 12
12.4028
 22
0.6528
 32
0
 13
12.6667
 23
0.6528
 33
0
  0
SOLID
  8
LAYER1
 62
     7
 10
12.6528
 20
0.9167
 30
0
 11
12.9167
 21
0.9167
 31
0
 12
12.6528
 22
0.7778
 32
0
 13
12.9167
 23
0.7778
 33
0
  0
SOLID
  8
LAYER1
 62
     7
 10
12.9028
 20
0.7917
 30
0
 11
13.1667
 21
0.7917
 31
0
 12
12.9028
 22
0.6528
 32
0
 13
13.1667
 23
0.6528
 33
0
  0
SOLID
  8
LAYER1
 62
     7
 10
13.1667
 20
0.9167
 30
0
 11
14.1806
 21
0.9167
 31
0
 12
13.1667
 22
0.7778
 32
0
 13
14.1806
 23
0.7778
 33
0
  0
TEXT
  8
LAYER1
 62
     7
 10
13.2723
 20
0.7066
 30
0
 40
0.0833
  1
Scale in Feet
 50
0
999
Geneva
  0
POLYLINE
  8
LAYER1
  6
CONTINUOUS
 62
     7
 66
     1
 70
     0
 40
0.0039
 41
0.0039
  0
VERTEX
  8
LAYER1
 10
12.1528
 20
0.9167
 30
0
 70
     0
  0
VERTEX
  8
LAYER1
 10
14.1667
 20
0.9167
 30
0
 70
     0
  0
VERTEX
  8
LAYER1
 10
14.1667
 20
0.6528
 30
0
 70
     0
  0
VERTEX
  8
LAYER1
 10
12.1528
 20
0.6528
 30
0
 70
     0
  0
VERTEX
  8
LAYER1
 10
12.1528
 20
0.9167
 30
0
 70
     0
  0
SEQEND
  0
ENDBLK
  8
LAYER1
  0
BLOCK
  8
LAYER1
  2
Group90
 70
     0
 10
0
 20
0
 30
0
  0
TEXT
  8
LAYER1
 62
     7
 10
12.1196
 20
0.9844
 30
0
 40
0.0972
  1
0
 50
0
999
Geneva
  0
TEXT
  8
LAYER1
 62
     7
 10
12.5084
 20
0.9844
 30
0
 40
0.0972
  1
500
 50
0
999
Geneva
  0
TEXT
  8
LAYER1
 62
     7
 10
12.9668
 20
0.9844
 30
0
 40
0.0972
  1
1000
 50
0
999
Geneva
  0
TEXT
  8
LAYER1
 62
     7
 10
14.0084
 20
0.9844
 30
0
 40
0.0972
  1
2000
 50
0
999
Geneva
  0
TEXT
  8
LAYER1
 62
     7
 10
11.3834
 20
0.7621
 30
0
 40
0.0972
  1
1"=1000'
 50
0
999
Geneva
  0
INSERT
  8
LAYER1
  2
Group89
 10
0
 20
0
 30
0
  0
ENDBLK
  8
LAYER1
  0
BLOCK
  8
LAYER1
  2
Group91
 70
     0
 10
0
 20
0
 30
0
  0
POLYLINE
  8
LAYER1
  6
CONTINUOUS
 62
     7
 66
     1
 70
     0
 40
0.0039
 41
0.0039
  0
VERTEX
  8
LAYER1
 10
15.75
 20
10.2222
 30
0
 70
     0
  0
VERTEX
  8
LAYER1
 10
16.2639
 20
10.2222
 30
0
 70
     0
  0
VERTEX
  8
LAYER1
 10
16.2639
 20
9.9583
 30
0
 70
     0
  0
VERTEX
  8
LAYER1
 10
15.75
 20
9.9583
 30
0
 70
     0
  0
VERTEX
  8
LAYER1
 10
15.75
 20
10.2222
 30
0
 70
     0
  0
SEQEND
  0
POLYLINE
  8
LAYER1
  6
CONTINUOUS
 62
     7
 66
     1
 70
     0
 40
0.0039
 41
0.0039
  0
VERTEX
  8
LAYER1
 10
16.25
 20
9.7222
 30
0
 70
     0
  0
VERTEX
  8
LAYER1
 10
16.7639
 20
9.7222
 30
0
 70
     0
  0
VERTEX
  8
LAYER1
 10
16.7639
 20
9.4583
 30
0
 70
     0
  0
VERTEX
  8
LAYER1
 10
16.25
 20
9.4583
 30
0
 70
     0
  0
VERTEX
  8
LAYER1
 10
16.25
 20
9.7222
 30
0
 70
     0
  0
SEQEND
  0
POLYLINE
  8
LAYER1
  6
CONTINUOUS
 62
     7
 66
     1
 70
     0
 40
0.0039
 41
0.0039
  0
VERTEX
  8
LAYER1
 10
16.75
 20
10.2222
 30
0
 70
     0
  0
VERTEX
  8
LAYER1
 10
17.7639
 20
10.2222
 30
0
 70
     0
  0
VERTEX
  8
LAYER1
 10
17.7639
 20
9.9583
 30
0
 70
     0
  0
VERTEX
  8
LAYER1
 10
16.75
 20
9.9583
 30
0
 70
     0
  0
VERTEX
  8
LAYER1
 10
16.75
 20
10.2222
 30
0
 70
     0
  0
SEQEND
  0
LINE
  8
LAYER1
  6
CONTINUOUS
 62
     7
 10
16.25
 20
10.2222
 30
0
 11
16.25
 21
9.4722
 31
0
  0
LINE
  8
LAYER1
  6
CONTINUOUS
 62
     7
 10
16.75
 20
9.4722
 30
0
 11
16.75
 21
10.2222
 31
0
  0
POLYLINE
  8
LAYER1
  6
CONTINUOUS
 62
     7
 66
     1
 70
     0
 40
0.0039
 41
0.0039
  0
VERTEX
  8
LAYER1
 10
17.75
 20
9.7222
 30
0
 70
     0
  0
VERTEX
  8
LAYER1
 10
18.7639
 20
9.7222
 30
0
 70
     0
  0
VERTEX
  8
LAYER1
 10
18.7639
 20
9.4583
 30
0
 70
     0
  0
VERTEX
  8
LAYER1
 10
17.75
 20
9.4583
 30
0
 70
     0
  0
VERTEX
  8
LAYER1
 10
17.75
 20
9.7222
 30
0
 70
     0
  0
SEQEND
  0
TEXT
  8
LAYER1
 62
     7
 10
17.8279
 20
9.7621
 30
0
 40
0.0972
  1
Scale in Feet
 50
0
999
Geneva
  0
LINE
  8
LAYER1
  6
CONTINUOUS
 62
     7
 10
17.75
 20
9.4722
 30
0
 11
17.75
 21
10.2222
 31
0
  0
TEXT
  8
LAYER1
 62
     7
 10
15.7029
 20
10.3177
 30
0
 40
0.0972
  1
0
 50
0
999
Geneva
  0
TEXT
  8
LAYER1
 62
     7
 10
16.2029
 20
10.3177
 30
0
 40
0.0972
  1
5
 50
0
999
Geneva
  0
TEXT
  8
LAYER1
 62
     7
 10
16.6473
 20
10.3177
 30
0
 40
0.0972
  1
10
 50
0
999
Geneva
  0
TEXT
  8
LAYER1
 62
     7
 10
17.6473
 20
10.3177
 30
0
 40
0.0972
  1
20
 50
0
999
Geneva
  0
TEXT
  8
LAYER1
 62
     7
 10
18.6334
 20
10.3177
 30
0
 40
0.0972
  1
30
 50
0
999
Geneva
  0
TEXT
  8
LAYER1
 62
     7
 10
15.064
 20
9.8733
 30
0
 40
0.0972
  1
1"=10'
 50
0
999
Geneva
  0
ENDBLK
  8
LAYER1
  0
BLOCK
  8
LAYER1
  2
Group92
 70
     0
 10
0
 20
0
 30
0
  0
LINE
  8
LAYER1
  6
CONTINUOUS
 62
     7
 10
18.75
 20
9.7222
 30
0
 11
18.75
 21
10.2222
 31
0
  0
POLYLINE
  8
LAYER1
  6
CONTINUOUS
 62
     7
 66
     1
 70
     0
 40
0.0039
 41
0.0039
  0
VERTEX
  8
LAYER1
 10
15.75
 20
8.4722
 30
0
 70
     0
  0
VERTEX
  8
LAYER1
 10
16.2639
 20
8.4722
 30
0
 70
     0
  0
VERTEX
  8
LAYER1
 10
16.2639
 20
8.2083
 30
0
 70
     0
  0
VERTEX
  8
LAYER1
 10
15.75
 20
8.2083
 30
0
 70
     0
  0
VERTEX
  8
LAYER1
 10
15.75
 20
8.4722
 30
0
 70
     0
  0
SEQEND
  0
POLYLINE
  8
LAYER1
  6
CONTINUOUS
 62
     7
 66
     1
 70
     0
 40
0.0039
 41
0.0039
  0
VERTEX
  8
LAYER1
 10
16.25
 20
7.9722
 30
0
 70
     0
  0
VERTEX
  8
LAYER1
 10
16.7639
 20
7.9722
 30
0
 70
     0
  0
VERTEX
  8
LAYER1
 10
16.7639
 20
7.7083
 30
0
 70
     0
  0
VERTEX
  8
LAYER1
 10
16.25
 20
7.7083
 30
0
 70
     0
  0
VERTEX
  8
LAYER1
 10
16.25
 20
7.9722
 30
0
 70
     0
  0
SEQEND
  0
POLYLINE
  8
LAYER1
  6
CONTINUOUS
 62
     7
 66
     1
 70
     0
 40
0.0039
 41
0.0039
  0
VERTEX
  8
LAYER1
 10
16.75
 20
8.4722
 30
0
 70
     0
  0
VERTEX
  8
LAYER1
 10
17.7639
 20
8.4722
 30
0
 70
     0
  0
VERTEX
  8
LAYER1
 10
17.7639
 20
8.2083
 30
0
 70
     0
  0
VERTEX
  8
LAYER1
 10
16.75
 20
8.2083
 30
0
 70
     0
  0
VERTEX
  8
LAYER1
 10
16.75
 20
8.4722
 30
0
 70
     0
  0
SEQEND
  0
LINE
  8
LAYER1
  6
CONTINUOUS
 62
     7
 10
16.25
 20
8.4722
 30
0
 11
16.25
 21
7.7222
 31
0
  0
LINE
  8
LAYER1
  6
CONTINUOUS
 62
     7
 10
16.75
 20
7.7222
 30
0
 11
16.75
 21
8.4722
 31
0
  0
POLYLINE
  8
LAYER1
  6
CONTINUOUS
 62
     7
 66
     1
 70
     0
 40
0.0039
 41
0.0039
  0
VERTEX
  8
LAYER1
 10
17.75
 20
7.9722
 30
0
 70
     0
  0
VERTEX
  8
LAYER1
 10
18.7639
 20
7.9722
 30
0
 70
     0
  0
VERTEX
  8
LAYER1
 10
18.7639
 20
7.7083
 30
0
 70
     0
  0
VERTEX
  8
LAYER1
 10
17.75
 20
7.7083
 30
0
 70
     0
  0
VERTEX
  8
LAYER1
 10
17.75
 20
7.9722
 30
0
 70
     0
  0
SEQEND
  0
TEXT
  8
LAYER1
 62
     7
 10
17.8279
 20
8.0121
 30
0
 40
0.0972
  1
Scale in Feet
 50
0
999
Geneva
  0
LINE
  8
LAYER1
  6
CONTINUOUS
 62
     7
 10
17.75
 20
7.7222
 30
0
 11
17.75
 21
8.4722
 31
0
  0
TEXT
  8
LAYER1
 62
     7
 10
15.7029
 20
8.5677
 30
0
 40
0.0972
  1
0
 50
0
999
Geneva
  0
TEXT
  8
LAYER1
 62
     7
 10
16.1473
 20
8.5677
 30
0
 40
0.0972
  1
10
 50
0
999
Geneva
  0
TEXT
  8
LAYER1
 62
     7
 10
16.6473
 20
8.5677
 30
0
 40
0.0972
  1
20
 50
0
999
Geneva
  0
TEXT
  8
LAYER1
 62
     7
 10
17.6473
 20
8.5677
 30
0
 40
0.0972
  1
40
 50
0
999
Geneva
  0
TEXT
  8
LAYER1
 62
     7
 10
15.064
 20
8.1233
 30
0
 40
0.0972
  1
1"=20'
 50
0
999
Geneva
  0
ENDBLK
  8
LAYER1
  0
BLOCK
  8
LAYER1
  2
Group93
 70
     0
 10
0
 20
0
 30
0
  0
LINE
  8
LAYER1
  6
CONTINUOUS
 62
     7
 10
18.75
 20
7.9722
 30
0
 11
18.75
 21
8.4722
 31
0
  0
POLYLINE
  8
LAYER1
  6
CONTINUOUS
 62
     7
 66
     1
 70
     0
 40
0.0039
 41
0.0039
  0
VERTEX
  8
LAYER1
 10
15.75
 20
6.7222
 30
0
 70
     0
  0
VERTEX
  8
LAYER1
 10
16.2639
 20
6.7222
 30
0
 70
     0
  0
VERTEX
  8
LAYER1
 10
16.2639
 20
6.4583
 30
0
 70
     0
  0
VERTEX
  8
LAYER1
 10
15.75
 20
6.4583
 30
0
 70
     0
  0
VERTEX
  8
LAYER1
 10
15.75
 20
6.7222
 30
0
 70
     0
  0
SEQEND
  0
POLYLINE
  8
LAYER1
  6
CONTINUOUS
 62
     7
 66
     1
 70
     0
 40
0.0039
 41
0.0039
  0
VERTEX
  8
LAYER1
 10
16.25
 20
6.2222
 30
0
 70
     0
  0
VERTEX
  8
LAYER1
 10
16.7639
 20
6.2222
 30
0
 70
     0
  0
VERTEX
  8
LAYER1
 10
16.7639
 20
5.9583
 30
0
 70
     0
  0
VERTEX
  8
LAYER1
 10
16.25
 20
5.9583
 30
0
 70
     0
  0
VERTEX
  8
LAYER1
 10
16.25
 20
6.2222
 30
0
 70
     0
  0
SEQEND
  0
POLYLINE
  8
LAYER1
  6
CONTINUOUS
 62
     7
 66
     1
 70
     0
 40
0.0039
 41
0.0039
  0
VERTEX
  8
LAYER1
 10
16.75
 20
6.7222
 30
0
 70
     0
  0
VERTEX
  8
LAYER1
 10
17.7639
 20
6.7222
 30
0
 70
     0
  0
VERTEX
  8
LAYER1
 10
17.7639
 20
6.4583
 30
0
 70
     0
  0
VERTEX
  8
LAYER1
 10
16.75
 20
6.4583
 30
0
 70
     0
  0
VERTEX
  8
LAYER1
 10
16.75
 20
6.7222
 30
0
 70
     0
  0
SEQEND
  0
LINE
  8
LAYER1
  6
CONTINUOUS
 62
     7
 10
16.25
 20
6.7222
 30
0
 11
16.25
 21
5.9722
 31
0
  0
LINE
  8
LAYER1
  6
CONTINUOUS
 62
     7
 10
16.75
 20
5.9722
 30
0
 11
16.75
 21
6.7222
 31
0
  0
POLYLINE
  8
LAYER1
  6
CONTINUOUS
 62
     7
 66
     1
 70
     0
 40
0.0039
 41
0.0039
  0
VERTEX
  8
LAYER1
 10
17.75
 20
6.2222
 30
0
 70
     0
  0
VERTEX
  8
LAYER1
 10
18.7639
 20
6.2222
 30
0
 70
     0
  0
VERTEX
  8
LAYER1
 10
18.7639
 20
5.9583
 30
0
 70
     0
  0
VERTEX
  8
LAYER1
 10
17.75
 20
5.9583
 30
0
 70
     0
  0
VERTEX
  8
LAYER1
 10
17.75
 20
6.2222
 30
0
 70
     0
  0
SEQEND
  0
TEXT
  8
LAYER1
 62
     7
 10
17.8279
 20
6.2621
 30
0
 40
0.0972
  1
Scale in Feet
 50
0
999
Geneva
  0
LINE
  8
LAYER1
  6
CONTINUOUS
 62
     7
 10
17.75
 20
5.9722
 30
0
 11
17.75
 21
6.7222
 31
0
  0
TEXT
  8
LAYER1
 62
     7
 10
15.7029
 20
6.8177
 30
0
 40
0.0972
  1
0
 50
0
999
Geneva
  0
TEXT
  8
LAYER1
 62
     7
 10
16.1473
 20
6.8177
 30
0
 40
0.0972
  1
15
 50
0
999
Geneva
  0
TEXT
  8
LAYER1
 62
     7
 10
16.6473
 20
6.8177
 30
0
 40
0.0972
  1
30
 50
0
999
Geneva
  0
TEXT
  8
LAYER1
 62
     7
 10
17.6473
 20
6.8177
 30
0
 40
0.0972
  1
60
 50
0
999
Geneva
  0
TEXT
  8
LAYER1
 62
     7
 10
15.064
 20
6.3733
 30
0
 40
0.0972
  1
1"=30'
 50
0
999
Geneva
  0
ENDBLK
  8
LAYER1
  0
BLOCK
  8
LAYER1
  2
Group94
 70
     0
 10
0
 20
0
 30
0
  0
LINE
  8
LAYER1
  6
CONTINUOUS
 62
     7
 10
18.75
 20
6.2222
 30
0
 11
18.75
 21
6.7222
 31
0
  0
POLYLINE
  8
LAYER1
  6
CONTINUOUS
 62
     7
 66
     1
 70
     0
 40
0.0039
 41
0.0039
  0
VERTEX
  8
LAYER1
 10
15.75
 20
4.9722
 30
0
 70
     0
  0
VERTEX
  8
LAYER1
 10
16.2639
 20
4.9722
 30
0
 70
     0
  0
VERTEX
  8
LAYER1
 10
16.2639
 20
4.7083
 30
0
 70
     0
  0
VERTEX
  8
LAYER1
 10
15.75
 20
4.7083
 30
0
 70
     0
  0
VERTEX
  8
LAYER1
 10
15.75
 20
4.9722
 30
0
 70
     0
  0
SEQEND
  0
POLYLINE
  8
LAYER1
  6
CONTINUOUS
 62
     7
 66
     1
 70
     0
 40
0.0039
 41
0.0039
  0
VERTEX
  8
LAYER1
 10
16.25
 20
4.4722
 30
0
 70
     0
  0
VERTEX
  8
LAYER1
 10
16.7639
 20
4.4722
 30
0
 70
     0
  0
VERTEX
  8
LAYER1
 10
16.7639
 20
4.2083
 30
0
 70
     0
  0
VERTEX
  8
LAYER1
 10
16.25
 20
4.2083
 30
0
 70
     0
  0
VERTEX
  8
LAYER1
 10
16.25
 20
4.4722
 30
0
 70
     0
  0
SEQEND
  0
POLYLINE
  8
LAYER1
  6
CONTINUOUS
 62
     7
 66
     1
 70
     0
 40
0.0039
 41
0.0039
  0
VERTEX
  8
LAYER1
 10
16.75
 20
4.9722
 30
0
 70
     0
  0
VERTEX
  8
LAYER1
 10
17.7639
 20
4.9722
 30
0
 70
     0
  0
VERTEX
  8
LAYER1
 10
17.7639
 20
4.7083
 30
0
 70
     0
  0
VERTEX
  8
LAYER1
 10
16.75
 20
4.7083
 30
0
 70
     0
  0
VERTEX
  8
LAYER1
 10
16.75
 20
4.9722
 30
0
 70
     0
  0
SEQEND
  0
LINE
  8
LAYER1
  6
CONTINUOUS
 62
     7
 10
16.25
 20
4.9722
 30
0
 11
16.25
 21
4.2222
 31
0
  0
LINE
  8
LAYER1
  6
CONTINUOUS
 62
     7
 10
16.75
 20
4.2222
 30
0
 11
16.75
 21
4.9722
 31
0
  0
POLYLINE
  8
LAYER1
  6
CONTINUOUS
 62
     7
 66
     1
 70
     0
 40
0.0039
 41
0.0039
  0
VERTEX
  8
LAYER1
 10
17.75
 20
4.4722
 30
0
 70
     0
  0
VERTEX
  8
LAYER1
 10
18.7639
 20
4.4722
 30
0
 70
     0
  0
VERTEX
  8
LAYER1
 10
18.7639
 20
4.2083
 30
0
 70
     0
  0
VERTEX
  8
LAYER1
 10
17.75
 20
4.2083
 30
0
 70
     0
  0
VERTEX
  8
LAYER1
 10
17.75
 20
4.4722
 30
0
 70
     0
  0
SEQEND
  0
TEXT
  8
LAYER1
 62
     7
 10
17.8279
 20
4.5121
 30
0
 40
0.0972
  1
Scale in Feet
 50
0
999
Geneva
  0
LINE
  8
LAYER1
  6
CONTINUOUS
 62
     7
 10
17.75
 20
4.2222
 30
0
 11
17.75
 21
4.9722
 31
0
  0
TEXT
  8
LAYER1
 62
     7
 10
15.7029
 20
5.0677
 30
0
 40
0.0972
  1
0
 50
0
999
Geneva
  0
TEXT
  8
LAYER1
 62
     7
 10
16.1473
 20
5.0677
 30
0
 40
0.0972
  1
20
 50
0
999
Geneva
  0
TEXT
  8
LAYER1
 62
     7
 10
16.6473
 20
5.0677
 30
0
 40
0.0972
  1
40
 50
0
999
Geneva
  0
TEXT
  8
LAYER1
 62
     7
 10
17.6473
 20
5.0677
 30
0
 40
0.0972
  1
60
 50
0
999
Geneva
  0
TEXT
  8
LAYER1
 62
     7
 10
15.064
 20
4.6233
 30
0
 40
0.0972
  1
1"=40'
 50
0
999
Geneva
  0
ENDBLK
  8
LAYER1
  0
BLOCK
  8
LAYER1
  2
Group95
 70
     0
 10
0
 20
0
 30
0
  0
LINE
  8
LAYER1
  6
CONTINUOUS
 62
     7
 10
18.75
 20
4.4722
 30
0
 11
18.75
 21
4.9722
 31
0
  0
POLYLINE
  8
LAYER1
  6
CONTINUOUS
 62
     7
 66
     1
 70
     0
 40
0.0039
 41
0.0039
  0
VERTEX
  8
LAYER1
 10
15.75
 20
3.2222
 30
0
 70
     0
  0
VERTEX
  8
LAYER1
 10
16.2639
 20
3.2222
 30
0
 70
     0
  0
VERTEX
  8
LAYER1
 10
16.2639
 20
2.9583
 30
0
 70
     0
  0
VERTEX
  8
LAYER1
 10
15.75
 20
2.9583
 30
0
 70
     0
  0
VERTEX
  8
LAYER1
 10
15.75
 20
3.2222
 30
0
 70
     0
  0
SEQEND
  0
POLYLINE
  8
LAYER1
  6
CONTINUOUS
 62
     7
 66
     1
 70
     0
 40
0.0039
 41
0.0039
  0
VERTEX
  8
LAYER1
 10
16.25
 20
2.7222
 30
0
 70
     0
  0
VERTEX
  8
LAYER1
 10
16.7639
 20
2.7222
 30
0
 70
     0
  0
VERTEX
  8
LAYER1
 10
16.7639
 20
2.4583
 30
0
 70
     0
  0
VERTEX
  8
LAYER1
 10
16.25
 20
2.4583
 30
0
 70
     0
  0
VERTEX
  8
LAYER1
 10
16.25
 20
2.7222
 30
0
 70
     0
  0
SEQEND
  0
POLYLINE
  8
LAYER1
  6
CONTINUOUS
 62
     7
 66
     1
 70
     0
 40
0.0039
 41
0.0039
  0
VERTEX
  8
LAYER1
 10
16.75
 20
3.2222
 30
0
 70
     0
  0
VERTEX
  8
LAYER1
 10
17.7639
 20
3.2222
 30
0
 70
     0
  0
VERTEX
  8
LAYER1
 10
17.7639
 20
2.9583
 30
0
 70
     0
  0
VERTEX
  8
LAYER1
 10
16.75
 20
2.9583
 30
0
 70
     0
  0
VERTEX
  8
LAYER1
 10
16.75
 20
3.2222
 30
0
 70
     0
  0
SEQEND
  0
LINE
  8
LAYER1
  6
CONTINUOUS
 62
     7
 10
16.25
 20
3.2222
 30
0
 11
16.25
 21
2.4722
 31
0
  0
LINE
  8
LAYER1
  6
CONTINUOUS
 62
     7
 10
16.75
 20
2.4722
 30
0
 11
16.75
 21
3.2222
 31
0
  0
POLYLINE
  8
LAYER1
  6
CONTINUOUS
 62
     7
 66
     1
 70
     0
 40
0.0039
 41
0.0039
  0
VERTEX
  8
LAYER1
 10
17.75
 20
2.7222
 30
0
 70
     0
  0
VERTEX
  8
LAYER1
 10
18.7639
 20
2.7222
 30
0
 70
     0
  0
VERTEX
  8
LAYER1
 10
18.7639
 20
2.4583
 30
0
 70
     0
  0
VERTEX
  8
LAYER1
 10
17.75
 20
2.4583
 30
0
 70
     0
  0
VERTEX
  8
LAYER1
 10
17.75
 20
2.7222
 30
0
 70
     0
  0
SEQEND
  0
TEXT
  8
LAYER1
 62
     7
 10
17.8279
 20
2.7621
 30
0
 40
0.0972
  1
Scale in Feet
 50
0
999
Geneva
  0
LINE
  8
LAYER1
  6
CONTINUOUS
 62
     7
 10
17.75
 20
2.4722
 30
0
 11
17.75
 21
3.2222
 31
0
  0
TEXT
  8
LAYER1
 62
     7
 10
15.7029
 20
3.3177
 30
0
 40
0.0972
  1
0
 50
0
999
Geneva
  0
TEXT
  8
LAYER1
 62
     7
 10
16.1473
 20
3.3177
 30
0
 40
0.0972
  1
25
 50
0
999
Geneva
  0
TEXT
  8
LAYER1
 62
     7
 10
16.6473
 20
3.3177
 30
0
 40
0.0972
  1
50
 50
0
999
Geneva
  0
TEXT
  8
LAYER1
 62
     7
 10
17.5918
 20
3.3177
 30
0
 40
0.0972
  1
100
 50
0
999
Geneva
  0
TEXT
  8
LAYER1
 62
     7
 10
15.064
 20
2.8733
 30
0
 40
0.0972
  1
1"=50'
 50
0
999
Geneva
  0
ENDBLK
  8
LAYER1
  0
BLOCK
  8
LAYER1
  2
Group96
 70
     0
 10
0
 20
0
 30
0
  0
LINE
  8
LAYER1
  6
CONTINUOUS
 62
     7
 10
18.75
 20
2.7222
 30
0
 11
18.75
 21
3.2222
 31
0
  0
POLYLINE
  8
LAYER1
  6
CONTINUOUS
 62
     7
 66
     1
 70
     0
 40
0.0039
 41
0.0039
  0
VERTEX
  8
LAYER1
 10
15.75
 20
1.4722
 30
0
 70
     0
  0
VERTEX
  8
LAYER1
 10
16.2639
 20
1.4722
 30
0
 70
     0
  0
VERTEX
  8
LAYER1
 10
16.2639
 20
1.2083
 30
0
 70
     0
  0
VERTEX
  8
LAYER1
 10
15.75
 20
1.2083
 30
0
 70
     0
  0
VERTEX
  8
LAYER1
 10
15.75
 20
1.4722
 30
0
 70
     0
  0
SEQEND
  0
POLYLINE
  8
LAYER1
  6
CONTINUOUS
 62
     7
 66
     1
 70
     0
 40
0.0039
 41
0.0039
  0
VERTEX
  8
LAYER1
 10
16.25
 20
0.9722
 30
0
 70
     0
  0
VERTEX
  8
LAYER1
 10
16.7639
 20
0.9722
 30
0
 70
     0
  0
VERTEX
  8
LAYER1
 10
16.7639
 20
0.7083
 30
0
 70
     0
  0
VERTEX
  8
LAYER1
 10
16.25
 20
0.7083
 30
0
 70
     0
  0
VERTEX
  8
LAYER1
 10
16.25
 20
0.9722
 30
0
 70
     0
  0
SEQEND
  0
POLYLINE
  8
LAYER1
  6
CONTINUOUS
 62
     7
 66
     1
 70
     0
 40
0.0039
 41
0.0039
  0
VERTEX
  8
LAYER1
 10
16.75
 20
1.4722
 30
0
 70
     0
  0
VERTEX
  8
LAYER1
 10
17.7639
 20
1.4722
 30
0
 70
     0
  0
VERTEX
  8
LAYER1
 10
17.7639
 20
1.2083
 30
0
 70
     0
  0
VERTEX
  8
LAYER1
 10
16.75
 20
1.2083
 30
0
 70
     0
  0
VERTEX
  8
LAYER1
 10
16.75
 20
1.4722
 30
0
 70
     0
  0
SEQEND
  0
LINE
  8
LAYER1
  6
CONTINUOUS
 62
     7
 10
16.25
 20
1.4722
 30
0
 11
16.25
 21
0.7222
 31
0
  0
LINE
  8
LAYER1
  6
CONTINUOUS
 62
     7
 10
16.75
 20
0.7222
 30
0
 11
16.75
 21
1.4722
 31
0
  0
POLYLINE
  8
LAYER1
  6
CONTINUOUS
 62
     7
 66
     1
 70
     0
 40
0.0039
 41
0.0039
  0
VERTEX
  8
LAYER1
 10
17.75
 20
0.9722
 30
0
 70
     0
  0
VERTEX
  8
LAYER1
 10
18.7639
 20
0.9722
 30
0
 70
     0
  0
VERTEX
  8
LAYER1
 10
18.7639
 20
0.7083
 30
0
 70
     0
  0
VERTEX
  8
LAYER1
 10
17.75
 20
0.7083
 30
0
 70
     0
  0
VERTEX
  8
LAYER1
 10
17.75
 20
0.9722
 30
0
 70
     0
  0
SEQEND
  0
TEXT
  8
LAYER1
 62
     7
 10
17.8279
 20
1.0121
 30
0
 40
0.0972
  1
Scale in Feet
 50
0
999
Geneva
  0
LINE
  8
LAYER1
  6
CONTINUOUS
 62
     7
 10
17.75
 20
0.7222
 30
0
 11
17.75
 21
1.4722
 31
0
  0
TEXT
  8
LAYER1
 62
     7
 10
15.7029
 20
1.5677
 30
0
 40
0.0972
  1
0
 50
0
999
Geneva
  0
TEXT
  8
LAYER1
 62
     7
 10
16.1473
 20
1.5677
 30
0
 40
0.0972
  1
30
 50
0
999
Geneva
  0
TEXT
  8
LAYER1
 62
     7
 10
16.6473
 20
1.5677
 30
0
 40
0.0972
  1
60
 50
0
999
Geneva
  0
TEXT
  8
LAYER1
 62
     7
 10
17.5918
 20
1.5677
 30
0
 40
0.0972
  1
120
 50
0
999
Geneva
  0
TEXT
  8
LAYER1
 62
     7
 10
18.5918
 20
1.5677
 30
0
 40
0.0972
  1
180
 50
0
999
Geneva
  0
TEXT
  8
LAYER1
 62
     7
 10
15.064
 20
1.1233
 30
0
 40
0.0972
  1
1"=60'
 50
0
999
Geneva
  0
ENDBLK
  8
LAYER1
  0
BLOCK
  8
LAYER1
  2
Group97
 70
     0
 10
0
 20
0
 30
0
  0
LINE
  8
LAYER1
  6
CONTINUOUS
 62
     7
 10
18.75
 20
0.9722
 30
0
 11
18.75
 21
1.4722
 31
0
  0
POLYLINE
  8
LAYER1
  6
CONTINUOUS
 62
     7
 66
     1
 70
     0
 40
0.0039
 41
0.0039
  0
VERTEX
  8
LAYER1
 10
24.0278
 20
10.2222
 30
0
 70
     0
  0
VERTEX
  8
LAYER1
 10
24.5417
 20
10.2222
 30
0
 70
     0
  0
VERTEX
  8
LAYER1
 10
24.5417
 20
9.9583
 30
0
 70
     0
  0
VERTEX
  8
LAYER1
 10
24.0278
 20
9.9583
 30
0
 70
     0
  0
VERTEX
  8
LAYER1
 10
24.0278
 20
10.2222
 30
0
 70
     0
  0
SEQEND
  0
POLYLINE
  8
LAYER1
  6
CONTINUOUS
 62
     7
 66
     1
 70
     0
 40
0.0039
 41
0.0039
  0
VERTEX
  8
LAYER1
 10
24.5278
 20
9.7222
 30
0
 70
     0
  0
VERTEX
  8
LAYER1
 10
25.0417
 20
9.7222
 30
0
 70
     0
  0
VERTEX
  8
LAYER1
 10
25.0417
 20
9.4583
 30
0
 70
     0
  0
VERTEX
  8
LAYER1
 10
24.5278
 20
9.4583
 30
0
 70
     0
  0
VERTEX
  8
LAYER1
 10
24.5278
 20
9.7222
 30
0
 70
     0
  0
SEQEND
  0
POLYLINE
  8
LAYER1
  6
CONTINUOUS
 62
     7
 66
     1
 70
     0
 40
0.0039
 41
0.0039
  0
VERTEX
  8
LAYER1
 10
25.0278
 20
10.2222
 30
0
 70
     0
  0
VERTEX
  8
LAYER1
 10
26.0417
 20
10.2222
 30
0
 70
     0
  0
VERTEX
  8
LAYER1
 10
26.0417
 20
9.9583
 30
0
 70
     0
  0
VERTEX
  8
LAYER1
 10
25.0278
 20
9.9583
 30
0
 70
     0
  0
VERTEX
  8
LAYER1
 10
25.0278
 20
10.2222
 30
0
 70
     0
  0
SEQEND
  0
LINE
  8
LAYER1
  6
CONTINUOUS
 62
     7
 10
24.5278
 20
10.2222
 30
0
 11
24.5278
 21
9.4722
 31
0
  0
LINE
  8
LAYER1
  6
CONTINUOUS
 62
     7
 10
25.0278
 20
9.4722
 30
0
 11
25.0278
 21
10.2222
 31
0
  0
POLYLINE
  8
LAYER1
  6
CONTINUOUS
 62
     7
 66
     1
 70
     0
 40
0.0039
 41
0.0039
  0
VERTEX
  8
LAYER1
 10
26.0278
 20
9.7222
 30
0
 70
     0
  0
VERTEX
  8
LAYER1
 10
27.0417
 20
9.7222
 30
0
 70
     0
  0
VERTEX
  8
LAYER1
 10
27.0417
 20
9.4583
 30
0
 70
     0
  0
VERTEX
  8
LAYER1
 10
26.0278
 20
9.4583
 30
0
 70
     0
  0
VERTEX
  8
LAYER1
 10
26.0278
 20
9.7222
 30
0
 70
     0
  0
SEQEND
  0
TEXT
  8
LAYER1
 62
     7
 10
26.1057
 20
9.7621
 30
0
 40
0.0972
  1
Scale in Feet
 50
0
999
Geneva
  0
LINE
  8
LAYER1
  6
CONTINUOUS
 62
     7
 10
26.0278
 20
9.4722
 30
0
 11
26.0278
 21
10.2222
 31
0
  0
TEXT
  8
LAYER1
 62
     7
 10
23.9807
 20
10.3177
 30
0
 40
0.0972
  1
0
 50
0
999
Geneva
  0
TEXT
  8
LAYER1
 62
     7
 10
24.4251
 20
10.3177
 30
0
 40
0.0972
  1
40
 50
0
999
Geneva
  0
TEXT
  8
LAYER1
 62
     7
 10
24.9112
 20
10.3177
 30
0
 40
0.0972
  1
80
 50
0
999
Geneva
  0
TEXT
  8
LAYER1
 62
     7
 10
25.8696
 20
10.3177
 30
0
 40
0.0972
  1
160
 50
0
999
Geneva
  0
TEXT
  8
LAYER1
 62
     7
 10
26.8557
 20
10.3177
 30
0
 40
0.0972
  1
240
 50
0
999
Geneva
  0
TEXT
  8
LAYER1
 62
     7
 10
23.3418
 20
9.8733
 30
0
 40
0.0972
  1
1"=80'
 50
0
999
Geneva
  0
ENDBLK
  8
LAYER1
  0
BLOCK
  8
LAYER1
  2
Group98
 70
     0
 10
0
 20
0
 30
0
  0
LINE
  8
LAYER1
  6
CONTINUOUS
 62
     7
 10
27.0278
 20
9.7222
 30
0
 11
27.0278
 21
10.2222
 31
0
  0
POLYLINE
  8
LAYER1
  6
CONTINUOUS
 62
     7
 66
     1
 70
     0
 40
0.0039
 41
0.0039
  0
VERTEX
  8
LAYER1
 10
24.0278
 20
8.4722
 30
0
 70
     0
  0
VERTEX
  8
LAYER1
 10
24.5417
 20
8.4722
 30
0
 70
     0
  0
VERTEX
  8
LAYER1
 10
24.5417
 20
8.2083
 30
0
 70
     0
  0
VERTEX
  8
LAYER1
 10
24.0278
 20
8.2083
 30
0
 70
     0
  0
VERTEX
  8
LAYER1
 10
24.0278
 20
8.4722
 30
0
 70
     0
  0
SEQEND
  0
POLYLINE
  8
LAYER1
  6
CONTINUOUS
 62
     7
 66
     1
 70
     0
 40
0.0039
 41
0.0039
  0
VERTEX
  8
LAYER1
 10
24.5278
 20
7.9722
 30
0
 70
     0
  0
VERTEX
  8
LAYER1
 10
25.0417
 20
7.9722
 30
0
 70
     0
  0
VERTEX
  8
LAYER1
 10
25.0417
 20
7.7083
 30
0
 70
     0
  0
VERTEX
  8
LAYER1
 10
24.5278
 20
7.7083
 30
0
 70
     0
  0
VERTEX
  8
LAYER1
 10
24.5278
 20
7.9722
 30
0
 70
     0
  0
SEQEND
  0
POLYLINE
  8
LAYER1
  6
CONTINUOUS
 62
     7
 66
     1
 70
     0
 40
0.0039
 41
0.0039
  0
VERTEX
  8
LAYER1
 10
25.0278
 20
8.4722
 30
0
 70
     0
  0
VERTEX
  8
LAYER1
 10
26.0417
 20
8.4722
 30
0
 70
     0
  0
VERTEX
  8
LAYER1
 10
26.0417
 20
8.2083
 30
0
 70
     0
  0
VERTEX
  8
LAYER1
 10
25.0278
 20
8.2083
 30
0
 70
     0
  0
VERTEX
  8
LAYER1
 10
25.0278
 20
8.4722
 30
0
 70
     0
  0
SEQEND
  0
LINE
  8
LAYER1
  6
CONTINUOUS
 62
     7
 10
24.5278
 20
8.4722
 30
0
 11
24.5278
 21
7.7222
 31
0
  0
LINE
  8
LAYER1
  6
CONTINUOUS
 62
     7
 10
25.0278
 20
7.7222
 30
0
 11
25.0278
 21
8.4722
 31
0
  0
POLYLINE
  8
LAYER1
  6
CONTINUOUS
 62
     7
 66
     1
 70
     0
 40
0.0039
 41
0.0039
  0
VERTEX
  8
LAYER1
 10
26.0278
 20
7.9722
 30
0
 70
     0
  0
VERTEX
  8
LAYER1
 10
27.0417
 20
7.9722
 30
0
 70
     0
  0
VERTEX
  8
LAYER1
 10
27.0417
 20
7.7083
 30
0
 70
     0
  0
VERTEX
  8
LAYER1
 10
26.0278
 20
7.7083
 30
0
 70
     0
  0
VERTEX
  8
LAYER1
 10
26.0278
 20
7.9722
 30
0
 70
     0
  0
SEQEND
  0
TEXT
  8
LAYER1
 62
     7
 10
26.1057
 20
8.0121
 30
0
 40
0.0972
  1
Scale in Feet
 50
0
999
Geneva
  0
LINE
  8
LAYER1
  6
CONTINUOUS
 62
     7
 10
26.0278
 20
7.7222
 30
0
 11
26.0278
 21
8.4722
 31
0
  0
TEXT
  8
LAYER1
 62
     7
 10
23.9807
 20
8.5677
 30
0
 40
0.0972
  1
0
 50
0
999
Geneva
  0
TEXT
  8
LAYER1
 62
     7
 10
24.4251
 20
8.5677
 30
0
 40
0.0972
  1
50
 50
0
999
Geneva
  0
TEXT
  8
LAYER1
 62
     7
 10
24.8696
 20
8.5677
 30
0
 40
0.0972
  1
100
 50
0
999
Geneva
  0
TEXT
  8
LAYER1
 62
     7
 10
25.8696
 20
8.5677
 30
0
 40
0.0972
  1
200
 50
0
999
Geneva
  0
TEXT
  8
LAYER1
 62
     7
 10
26.8557
 20
8.5677
 30
0
 40
0.0972
  1
300
 50
0
999
Geneva
  0
TEXT
  8
LAYER1
 62
     7
 10
23.2862
 20
8.1233
 30
0
 40
0.0972
  1
1"=100'
 50
0
999
Geneva
  0
ENDBLK
  8
LAYER1
  0
BLOCK
  8
LAYER1
  2
Group99
 70
     0
 10
0
 20
0
 30
0
  0
LINE
  8
LAYER1
  6
CONTINUOUS
 62
     7
 10
27.0278
 20
7.9722
 30
0
 11
27.0278
 21
8.4722
 31
0
  0
POLYLINE
  8
LAYER1
  6
CONTINUOUS
 62
     7
 66
     1
 70
     0
 40
0.0039
 41
0.0039
  0
VERTEX
  8
LAYER1
 10
24.0278
 20
6.7222
 30
0
 70
     0
  0
VERTEX
  8
LAYER1
 10
24.5417
 20
6.7222
 30
0
 70
     0
  0
VERTEX
  8
LAYER1
 10
24.5417
 20
6.4583
 30
0
 70
     0
  0
VERTEX
  8
LAYER1
 10
24.0278
 20
6.4583
 30
0
 70
     0
  0
VERTEX
  8
LAYER1
 10
24.0278
 20
6.7222
 30
0
 70
     0
  0
SEQEND
  0
POLYLINE
  8
LAYER1
  6
CONTINUOUS
 62
     7
 66
     1
 70
     0
 40
0.0039
 41
0.0039
  0
VERTEX
  8
LAYER1
 10
24.5278
 20
6.2222
 30
0
 70
     0
  0
VERTEX
  8
LAYER1
 10
25.0417
 20
6.2222
 30
0
 70
     0
  0
VERTEX
  8
LAYER1
 10
25.0417
 20
5.9583
 30
0
 70
     0
  0
VERTEX
  8
LAYER1
 10
24.5278
 20
5.9583
 30
0
 70
     0
  0
VERTEX
  8
LAYER1
 10
24.5278
 20
6.2222
 30
0
 70
     0
  0
SEQEND
  0
POLYLINE
  8
LAYER1
  6
CONTINUOUS
 62
     7
 66
     1
 70
     0
 40
0.0039
 41
0.0039
  0
VERTEX
  8
LAYER1
 10
25.0278
 20
6.7222
 30
0
 70
     0
  0
VERTEX
  8
LAYER1
 10
26.0417
 20
6.7222
 30
0
 70
     0
  0
VERTEX
  8
LAYER1
 10
26.0417
 20
6.4583
 30
0
 70
     0
  0
VERTEX
  8
LAYER1
 10
25.0278
 20
6.4583
 30
0
 70
     0
  0
VERTEX
  8
LAYER1
 10
25.0278
 20
6.7222
 30
0
 70
     0
  0
SEQEND
  0
LINE
  8
LAYER1
  6
CONTINUOUS
 62
     7
 10
24.5278
 20
6.7222
 30
0
 11
24.5278
 21
5.9722
 31
0
  0
LINE
  8
LAYER1
  6
CONTINUOUS
 62
     7
 10
25.0278
 20
5.9722
 30
0
 11
25.0278
 21
6.7222
 31
0
  0
POLYLINE
  8
LAYER1
  6
CONTINUOUS
 62
     7
 66
     1
 70
     0
 40
0.0039
 41
0.0039
  0
VERTEX
  8
LAYER1
 10
26.0278
 20
6.2222
 30
0
 70
     0
  0
VERTEX
  8
LAYER1
 10
27.0417
 20
6.2222
 30
0
 70
     0
  0
VERTEX
  8
LAYER1
 10
27.0417
 20
5.9583
 30
0
 70
     0
  0
VERTEX
  8
LAYER1
 10
26.0278
 20
5.9583
 30
0
 70
     0
  0
VERTEX
  8
LAYER1
 10
26.0278
 20
6.2222
 30
0
 70
     0
  0
SEQEND
  0
TEXT
  8
LAYER1
 62
     7
 10
26.1057
 20
6.2621
 30
0
 40
0.0972
  1
Scale in Feet
 50
0
999
Geneva
  0
LINE
  8
LAYER1
  6
CONTINUOUS
 62
     7
 10
26.0278
 20
5.9722
 30
0
 11
26.0278
 21
6.7222
 31
0
  0
TEXT
  8
LAYER1
 62
     7
 10
23.9807
 20
6.8177
 30
0
 40
0.0972
  1
0
 50
0
999
Geneva
  0
TEXT
  8
LAYER1
 62
     7
 10
24.3834
 20
6.8177
 30
0
 40
0.0972
  1
100
 50
0
999
Geneva
  0
TEXT
  8
LAYER1
 62
     7
 10
24.8696
 20
6.8177
 30
0
 40
0.0972
  1
200
 50
0
999
Geneva
  0
TEXT
  8
LAYER1
 62
     7
 10
25.8696
 20
6.8177
 30
0
 40
0.0972
  1
400
 50
0
999
Geneva
  0
TEXT
  8
LAYER1
 62
     7
 10
26.8557
 20
6.8177
 30
0
 40
0.0972
  1
600
 50
0
999
Geneva
  0
TEXT
  8
LAYER1
 62
     7
 10
23.2862
 20
6.3733
 30
0
 40
0.0972
  1
1"=200'
 50
0
999
Geneva
  0
ENDBLK
  8
LAYER1
  0
BLOCK
  8
LAYER1
  2
Group100
 70
     0
 10
0
 20
0
 30
0
  0
LINE
  8
LAYER1
  6
CONTINUOUS
 62
     7
 10
27.0278
 20
6.2222
 30
0
 11
27.0278
 21
6.7222
 31
0
  0
POLYLINE
  8
LAYER1
  6
CONTINUOUS
 62
     7
 66
     1
 70
     0
 40
0.0039
 41
0.0039
  0
VERTEX
  8
LAYER1
 10
24.0278
 20
4.9722
 30
0
 70
     0
  0
VERTEX
  8
LAYER1
 10
24.5417
 20
4.9722
 30
0
 70
     0
  0
VERTEX
  8
LAYER1
 10
24.5417
 20
4.7083
 30
0
 70
     0
  0
VERTEX
  8
LAYER1
 10
24.0278
 20
4.7083
 30
0
 70
     0
  0
VERTEX
  8
LAYER1
 10
24.0278
 20
4.9722
 30
0
 70
     0
  0
SEQEND
  0
POLYLINE
  8
LAYER1
  6
CONTINUOUS
 62
     7
 66
     1
 70
     0
 40
0.0039
 41
0.0039
  0
VERTEX
  8
LAYER1
 10
24.5278
 20
4.4722
 30
0
 70
     0
  0
VERTEX
  8
LAYER1
 10
25.0417
 20
4.4722
 30
0
 70
     0
  0
VERTEX
  8
LAYER1
 10
25.0417
 20
4.2083
 30
0
 70
     0
  0
VERTEX
  8
LAYER1
 10
24.5278
 20
4.2083
 30
0
 70
     0
  0
VERTEX
  8
LAYER1
 10
24.5278
 20
4.4722
 30
0
 70
     0
  0
SEQEND
  0
POLYLINE
  8
LAYER1
  6
CONTINUOUS
 62
     7
 66
     1
 70
     0
 40
0.0039
 41
0.0039
  0
VERTEX
  8
LAYER1
 10
25.0278
 20
4.9722
 30
0
 70
     0
  0
VERTEX
  8
LAYER1
 10
26.0417
 20
4.9722
 30
0
 70
     0
  0
VERTEX
  8
LAYER1
 10
26.0417
 20
4.7083
 30
0
 70
     0
  0
VERTEX
  8
LAYER1
 10
25.0278
 20
4.7083
 30
0
 70
     0
  0
VERTEX
  8
LAYER1
 10
25.0278
 20
4.9722
 30
0
 70
     0
  0
SEQEND
  0
LINE
  8
LAYER1
  6
CONTINUOUS
 62
     7
 10
24.5278
 20
4.9722
 30
0
 11
24.5278
 21
4.2222
 31
0
  0
LINE
  8
LAYER1
  6
CONTINUOUS
 62
     7
 10
25.0278
 20
4.2222
 30
0
 11
25.0278
 21
4.9722
 31
0
  0
POLYLINE
  8
LAYER1
  6
CONTINUOUS
 62
     7
 66
     1
 70
     0
 40
0.0039
 41
0.0039
  0
VERTEX
  8
LAYER1
 10
26.0278
 20
4.4722
 30
0
 70
     0
  0
VERTEX
  8
LAYER1
 10
27.0417
 20
4.4722
 30
0
 70
     0
  0
VERTEX
  8
LAYER1
 10
27.0417
 20
4.2083
 30
0
 70
     0
  0
VERTEX
  8
LAYER1
 10
26.0278
 20
4.2083
 30
0
 70
     0
  0
VERTEX
  8
LAYER1
 10
26.0278
 20
4.4722
 30
0
 70
     0
  0
SEQEND
  0
TEXT
  8
LAYER1
 62
     7
 10
26.1057
 20
4.5121
 30
0
 40
0.0972
  1
Scale in Feet
 50
0
999
Geneva
  0
LINE
  8
LAYER1
  6
CONTINUOUS
 62
     7
 10
26.0278
 20
4.2222
 30
0
 11
26.0278
 21
4.9722
 31
0
  0
TEXT
  8
LAYER1
 62
     7
 10
23.9807
 20
5.0677
 30
0
 40
0.0972
  1
0
 50
0
999
Geneva
  0
TEXT
  8
LAYER1
 62
     7
 10
24.3834
 20
5.0677
 30
0
 40
0.0972
  1
150
 50
0
999
Geneva
  0
TEXT
  8
LAYER1
 62
     7
 10
24.8696
 20
5.0677
 30
0
 40
0.0972
  1
300
 50
0
999
Geneva
  0
TEXT
  8
LAYER1
 62
     7
 10
25.8696
 20
5.0677
 30
0
 40
0.0972
  1
600
 50
0
999
Geneva
  0
TEXT
  8
LAYER1
 62
     7
 10
26.8557
 20
5.0677
 30
0
 40
0.0972
  1
900
 50
0
999
Geneva
  0
ENDBLK
  8
LAYER1
  0
BLOCK
  8
LAYER1
  2
Group101
 70
     0
 10
0
 20
0
 30
0
  0
INSERT
  8
LAYER1
  2
Group100
 10
0
 20
0
 30
0
  0
TEXT
  8
LAYER1
 62
     7
 10
23.2862
 20
4.6233
 30
0
 40
0.0972
  1
1"=300'
 50
0
999
Geneva
  0
ENDBLK
  8
LAYER1
  0
BLOCK
  8
LAYER1
  2
Group102
 70
     0
 10
0
 20
0
 30
0
  0
LINE
  8
LAYER1
  6
CONTINUOUS
 62
     7
 10
27.0278
 20
4.4722
 30
0
 11
27.0278
 21
4.9722
 31
0
  0
POLYLINE
  8
LAYER1
  6
CONTINUOUS
 62
     7
 66
     1
 70
     0
 40
0.0039
 41
0.0039
  0
VERTEX
  8
LAYER1
 10
24.0278
 20
3.2222
 30
0
 70
     0
  0
VERTEX
  8
LAYER1
 10
24.5417
 20
3.2222
 30
0
 70
     0
  0
VERTEX
  8
LAYER1
 10
24.5417
 20
2.9583
 30
0
 70
     0
  0
VERTEX
  8
LAYER1
 10
24.0278
 20
2.9583
 30
0
 70
     0
  0
VERTEX
  8
LAYER1
 10
24.0278
 20
3.2222
 30
0
 70
     0
  0
SEQEND
  0
POLYLINE
  8
LAYER1
  6
CONTINUOUS
 62
     7
 66
     1
 70
     0
 40
0.0039
 41
0.0039
  0
VERTEX
  8
LAYER1
 10
24.5278
 20
2.7222
 30
0
 70
     0
  0
VERTEX
  8
LAYER1
 10
25.0417
 20
2.7222
 30
0
 70
     0
  0
VERTEX
  8
LAYER1
 10
25.0417
 20
2.4583
 30
0
 70
     0
  0
VERTEX
  8
LAYER1
 10
24.5278
 20
2.4583
 30
0
 70
     0
  0
VERTEX
  8
LAYER1
 10
24.5278
 20
2.7222
 30
0
 70
     0
  0
SEQEND
  0
POLYLINE
  8
LAYER1
  6
CONTINUOUS
 62
     7
 66
     1
 70
     0
 40
0.0039
 41
0.0039
  0
VERTEX
  8
LAYER1
 10
25.0278
 20
3.2222
 30
0
 70
     0
  0
VERTEX
  8
LAYER1
 10
26.0417
 20
3.2222
 30
0
 70
     0
  0
VERTEX
  8
LAYER1
 10
26.0417
 20
2.9583
 30
0
 70
     0
  0
VERTEX
  8
LAYER1
 10
25.0278
 20
2.9583
 30
0
 70
     0
  0
VERTEX
  8
LAYER1
 10
25.0278
 20
3.2222
 30
0
 70
     0
  0
SEQEND
  0
LINE
  8
LAYER1
  6
CONTINUOUS
 62
     7
 10
24.5278
 20
3.2222
 30
0
 11
24.5278
 21
2.4722
 31
0
  0
LINE
  8
LAYER1
  6
CONTINUOUS
 62
     7
 10
25.0278
 20
2.4722
 30
0
 11
25.0278
 21
3.2222
 31
0
  0
POLYLINE
  8
LAYER1
  6
CONTINUOUS
 62
     7
 66
     1
 70
     0
 40
0.0039
 41
0.0039
  0
VERTEX
  8
LAYER1
 10
26.0278
 20
2.7222
 30
0
 70
     0
  0
VERTEX
  8
LAYER1
 10
27.0417
 20
2.7222
 30
0
 70
     0
  0
VERTEX
  8
LAYER1
 10
27.0417
 20
2.4583
 30
0
 70
     0
  0
VERTEX
  8
LAYER1
 10
26.0278
 20
2.4583
 30
0
 70
     0
  0
VERTEX
  8
LAYER1
 10
26.0278
 20
2.7222
 30
0
 70
     0
  0
SEQEND
  0
TEXT
  8
LAYER1
 62
     7
 10
26.1057
 20
2.7621
 30
0
 40
0.0972
  1
Scale in Feet
 50
0
999
Geneva
  0
LINE
  8
LAYER1
  6
CONTINUOUS
 62
     7
 10
26.0278
 20
2.4722
 30
0
 11
26.0278
 21
3.2222
 31
0
  0
TEXT
  8
LAYER1
 62
     7
 10
23.9807
 20
3.3177
 30
0
 40
0.0972
  1
0
 50
0
999
Geneva
  0
TEXT
  8
LAYER1
 62
     7
 10
24.3834
 20
3.3177
 30
0
 40
0.0972
  1
200
 50
0
999
Geneva
  0
TEXT
  8
LAYER1
 62
     7
 10
24.8696
 20
3.3177
 30
0
 40
0.0972
  1
400
 50
0
999
Geneva
  0
TEXT
  8
LAYER1
 62
     7
 10
25.8696
 20
3.3177
 30
0
 40
0.0972
  1
800
 50
0
999
Geneva
  0
TEXT
  8
LAYER1
 62
     7
 10
26.814
 20
3.3177
 30
0
 40
0.0972
  1
1200
 50
0
999
Geneva
  0
ENDBLK
  8
LAYER1
  0
BLOCK
  8
LAYER1
  2
Group103
 70
     0
 10
0
 20
0
 30
0
  0
INSERT
  8
LAYER1
  2
Group102
 10
0
 20
0
 30
0
  0
TEXT
  8
LAYER1
 62
     7
 10
23.2862
 20
2.8733
 30
0
 40
0.0972
  1
1"=400'
 50
0
999
Geneva
  0
ENDBLK
  8
LAYER1
  0
BLOCK
  8
LAYER1
  2
Group104
 70
     0
 10
0
 20
0
 30
0
  0
LINE
  8
LAYER1
  6
CONTINUOUS
 62
     7
 10
27.0278
 20
2.7222
 30
0
 11
27.0278
 21
3.2222
 31
0
  0
POLYLINE
  8
LAYER1
  6
CONTINUOUS
 62
     7
 66
     1
 70
     0
 40
0.0039
 41
0.0039
  0
VERTEX
  8
LAYER1
 10
24.0278
 20
1.4722
 30
0
 70
     0
  0
VERTEX
  8
LAYER1
 10
24.5417
 20
1.4722
 30
0
 70
     0
  0
VERTEX
  8
LAYER1
 10
24.5417
 20
1.2083
 30
0
 70
     0
  0
VERTEX
  8
LAYER1
 10
24.0278
 20
1.2083
 30
0
 70
     0
  0
VERTEX
  8
LAYER1
 10
24.0278
 20
1.4722
 30
0
 70
     0
  0
SEQEND
  0
POLYLINE
  8
LAYER1
  6
CONTINUOUS
 62
     7
 66
     1
 70
     0
 40
0.0039
 41
0.0039
  0
VERTEX
  8
LAYER1
 10
24.5278
 20
0.9722
 30
0
 70
     0
  0
VERTEX
  8
LAYER1
 10
25.0417
 20
0.9722
 30
0
 70
     0
  0
VERTEX
  8
LAYER1
 10
25.0417
 20
0.7083
 30
0
 70
     0
  0
VERTEX
  8
LAYER1
 10
24.5278
 20
0.7083
 30
0
 70
     0
  0
VERTEX
  8
LAYER1
 10
24.5278
 20
0.9722
 30
0
 70
     0
  0
SEQEND
  0
POLYLINE
  8
LAYER1
  6
CONTINUOUS
 62
     7
 66
     1
 70
     0
 40
0.0039
 41
0.0039
  0
VERTEX
  8
LAYER1
 10
25.0278
 20
1.4722
 30
0
 70
     0
  0
VERTEX
  8
LAYER1
 10
26.0417
 20
1.4722
 30
0
 70
     0
  0
VERTEX
  8
LAYER1
 10
26.0417
 20
1.2083
 30
0
 70
     0
  0
VERTEX
  8
LAYER1
 10
25.0278
 20
1.2083
 30
0
 70
     0
  0
VERTEX
  8
LAYER1
 10
25.0278
 20
1.4722
 30
0
 70
     0
  0
SEQEND
  0
LINE
  8
LAYER1
  6
CONTINUOUS
 62
     7
 10
24.5278
 20
1.4722
 30
0
 11
24.5278
 21
0.7222
 31
0
  0
LINE
  8
LAYER1
  6
CONTINUOUS
 62
     7
 10
25.0278
 20
0.7222
 30
0
 11
25.0278
 21
1.4722
 31
0
  0
POLYLINE
  8
LAYER1
  6
CONTINUOUS
 62
     7
 66
     1
 70
     0
 40
0.0039
 41
0.0039
  0
VERTEX
  8
LAYER1
 10
26.0278
 20
0.9722
 30
0
 70
     0
  0
VERTEX
  8
LAYER1
 10
27.0417
 20
0.9722
 30
0
 70
     0
  0
VERTEX
  8
LAYER1
 10
27.0417
 20
0.7083
 30
0
 70
     0
  0
VERTEX
  8
LAYER1
 10
26.0278
 20
0.7083
 30
0
 70
     0
  0
VERTEX
  8
LAYER1
 10
26.0278
 20
0.9722
 30
0
 70
     0
  0
SEQEND
  0
TEXT
  8
LAYER1
 62
     7
 10
26.1057
 20
1.0121
 30
0
 40
0.0972
  1
Scale in Feet
 50
0
999
Geneva
  0
LINE
  8
LAYER1
  6
CONTINUOUS
 62
     7
 10
26.0278
 20
0.7222
 30
0
 11
26.0278
 21
1.4722
 31
0
  0
TEXT
  8
LAYER1
 62
     7
 10
23.9807
 20
1.5677
 30
0
 40
0.0972
  1
0
 50
0
999
Geneva
  0
TEXT
  8
LAYER1
 62
     7
 10
24.3834
 20
1.5677
 30
0
 40
0.0972
  1
250
 50
0
999
Geneva
  0
TEXT
  8
LAYER1
 62
     7
 10
24.8696
 20
1.5677
 30
0
 40
0.0972
  1
500
 50
0
999
Geneva
  0
TEXT
  8
LAYER1
 62
     7
 10
25.814
 20
1.5677
 30
0
 40
0.0972
  1
1000
 50
0
999
Geneva
  0
TEXT
  8
LAYER1
 62
     7
 10
26.814
 20
1.5677
 30
0
 40
0.0972
  1
1500
 50
0
999
Geneva
  0
TEXT
  8
LAYER1
 62
     7
 10
23.2862
 20
1.1233
 30
0
 40
0.0972
  1
1"=500'
 50
0
999
Geneva
  0
ENDBLK
  8
LAYER1
  0
BLOCK
  8
LAYER1
  2
Group105
 70
     0
 10
0
 20
0
 30
0
  0
LINE
  8
LAYER1
  6
CONTINUOUS
 62
     7
 10
27.0278
 20
0.9722
 30
0
 11
27.0278
 21
1.4722
 31
0
  0
POLYLINE
  8
LAYER1
  6
CONTINUOUS
 62
     7
 66
     1
 70
     0
 40
0.0039
 41
0.0039
  0
VERTEX
  8
LAYER1
 10
19.8889
 20
9.243
 30
0
 70
     0
  0
VERTEX
  8
LAYER1
 10
19.885
 20
9.1439
 30
0
 70
     0
  0
VERTEX
  8
LAYER1
 10
19.8733
 20
9.0651
 30
0
 70
     0
  0
VERTEX
  8
LAYER1
 10
19.8537
 20
9.0067
 30
0
 70
     0
  0
VERTEX
  8
LAYER1
 10
19.8264
 20
8.9687
 30
0
 70
     0
  0
VERTEX
  8
LAYER1
 10
19.7912
 20
8.9512
 30
0
 70
     0
  0
VERTEX
  8
LAYER1
 10
19.7483
 20
8.954
 30
0
 70
     0
  0
VERTEX
  8
LAYER1
 10
19.6975
 20
8.9772
 30
0
 70
     0
  0
VERTEX
  8
LAYER1
 10
19.6389
 20
9.0208
 30
0
 70
     0
  0
VERTEX
  8
LAYER1
 10
19.6389
 20
9.0208
 30
0
 70
     0
  0
VERTEX
  8
LAYER1
 10
19.5842
 20
9.0747
 30
0
 70
     0
  0
VERTEX
  8
LAYER1
 10
19.5451
 20
9.1289
 30
0
 70
     0
  0
VERTEX
  8
LAYER1
 10
19.5217
 20
9.1833
 30
0
 70
     0
  0
VERTEX
  8
LAYER1
 10
19.5139
 20
9.2378
 30
0
 70
     0
  0
VERTEX
  8
LAYER1
 10
19.5217
 20
9.2926
 30
0
 70
     0
  0
VERTEX
  8
LAYER1
 10
19.5451
 20
9.3477
 30
0
 70
     0
  0
VERTEX
  8
LAYER1
 10
19.5842
 20
9.4029
 30
0
 70
     0
  0
VERTEX
  8
LAYER1
 10
19.6389
 20
9.4583
 30
0
 70
     0
  0
VERTEX
  8
LAYER1
 10
19.6389
 20
9.4583
 30
0
 70
     0
  0
VERTEX
  8
LAYER1
 10
19.6975
 20
9.5036
 30
0
 70
     0
  0
VERTEX
  8
LAYER1
 10
19.7483
 20
9.5282
 30
0
 70
     0
  0
VERTEX
  8
LAYER1
 10
19.7912
 20
9.5322
 30
0
 70
     0
  0
VERTEX
  8
LAYER1
 10
19.8264
 20
9.5156
 30
0
 70
     0
  0
VERTEX
  8
LAYER1
 10
19.8537
 20
9.4784
 30
0
 70
     0
  0
VERTEX
  8
LAYER1
 10
19.8733
 20
9.4206
 30
0
 70
     0
  0
VERTEX
  8
LAYER1
 10
19.885
 20
9.3421
 30
0
 70
     0
  0
VERTEX
  8
LAYER1
 10
19.8889
 20
9.243
 30
0
 70
     0
  0
SEQEND
  0
CIRCLE
  8
LAYER1
 10
2.5764
 20
0.5625
 30
0
 40
0.2292
  0
CIRCLE
  8
LAYER1
 10
2.5764
 20
0.5625
 30
0
 40
0.2292
  0
ENDBLK
  8
LAYER1
  0
BLOCK
  8
LAYER1
  2
Group106
 70
     0
 10
0
 20
0
 30
0
  0
CIRCLE
  8
LAYER1
 10
19.8125
 20
7.243
 30
0
 40
0.2569
  0
CIRCLE
  8
LAYER1
 10
19.8125
 20
7.243
 30
0
 40
0.2569
  0
ENDBLK
  8
LAYER1
  0
BLOCK
  8
LAYER1
  2
Group107
 70
     0
 10
0
 20
0
 30
0
  0
LINE
  8
LAYER1
  6
CONTINUOUS
 62
     7
 10
20.1389
 20
9.2361
 30
0
 11
19.6389
 21
9.2361
 31
0
  0
POLYLINE
  8
LAYER1
  6
CONTINUOUS
 62
     7
 66
     1
 70
     0
 40
0.0039
 41
0.0039
  0
VERTEX
  8
LAYER1
 10
19.7986
 20
7.25
 30
0
 70
     0
  0
VERTEX
  8
LAYER1
 10
19.6995
 20
7.2539
 30
0
 70
     0
  0
VERTEX
  8
LAYER1
 10
19.6211
 20
7.2656
 30
0
 70
     0
  0
VERTEX
  8
LAYER1
 10
19.5633
 20
7.2852
 30
0
 70
     0
  0
VERTEX
  8
LAYER1
 10
19.526
 20
7.3125
 30
0
 70
     0
  0
VERTEX
  8
LAYER1
 10
19.5094
 20
7.3477
 30
0
 70
     0
  0
VERTEX
  8
LAYER1
 10
19.5135
 20
7.3906
 30
0
 70
     0
  0
VERTEX
  8
LAYER1
 10
19.5381
 20
7.4414
 30
0
 70
     0
  0
VERTEX
  8
LAYER1
 10
19.5833
 20
7.5
 30
0
 70
     0
  0
VERTEX
  8
LAYER1
 10
19.5833
 20
7.5
 30
0
 70
     0
  0
VERTEX
  8
LAYER1
 10
19.6388
 20
7.5547
 30
0
 70
     0
  0
VERTEX
  8
LAYER1
 10
19.694
 20
7.5937
 30
0
 70
     0
  0
VERTEX
  8
LAYER1
 10
19.749
 20
7.6172
 30
0
 70
     0
  0
VERTEX
  8
LAYER1
 10
19.8038
 20
7.625
 30
0
 70
     0
  0
VERTEX
  8
LAYER1
 10
19.8584
 20
7.6172
 30
0
 70
     0
  0
VERTEX
  8
LAYER1
 10
19.9128
 20
7.5937
 30
0
 70
     0
  0
VERTEX
  8
LAYER1
 10
19.9669
 20
7.5547
 30
0
 70
     0
  0
VERTEX
  8
LAYER1
 10
20.0208
 20
7.5
 30
0
 70
     0
  0
VERTEX
  8
LAYER1
 10
20.0208
 20
7.5
 30
0
 70
     0
  0
VERTEX
  8
LAYER1
 10
20.0644
 20
7.4414
 30
0
 70
     0
  0
VERTEX
  8
LAYER1
 10
20.0877
 20
7.3906
 30
0
 70
     0
  0
VERTEX
  8
LAYER1
 10
20.0905
 20
7.3477
 30
0
 70
     0
  0
VERTEX
  8
LAYER1
 10
20.0729
 20
7.3125
 30
0
 70
     0
  0
VERTEX
  8
LAYER1
 10
20.0349
 20
7.2852
 30
0
 70
     0
  0
VERTEX
  8
LAYER1
 10
19.9766
 20
7.2656
 30
0
 70
     0
  0
VERTEX
  8
LAYER1
 10
19.8978
 20
7.2539
 30
0
 70
     0
  0
VERTEX
  8
LAYER1
 10
19.7986
 20
7.25
 30
0
 70
     0
  0
SEQEND
  0
INSERT
  8
LAYER1
  2
Group106
 10
0
 20
0
 30
0
  0
ENDBLK
  8
LAYER1
  0
BLOCK
  8
LAYER1
  2
Group108
 70
     0
 10
0
 20
0
 30
0
  0
CIRCLE
  8
LAYER1
 10
19.8819
 20
5.5486
 30
0
 40
0.1319
  0
CIRCLE
  8
LAYER1
 10
19.8819
 20
5.5486
 30
0
 40
0.1319
  0
ENDBLK
  8
LAYER1
  0
BLOCK
  8
LAYER1
  2
Group109
 70
     0
 10
0
 20
0
 30
0
  0
LINE
  8
LAYER1
  6
CONTINUOUS
 62
     7
 10
20.0556
 20
7.25
 30
0
 11
19.5556
 21
7.25
 31
0
  0
POLYLINE
  8
LAYER1
  6
CONTINUOUS
 62
     7
 66
     1
 70
     0
 40
0.0039
 41
0.0039
  0
VERTEX
  8
LAYER1
 10
19.875
 20
5.5486
 30
0
 70
     0
  0
VERTEX
  8
LAYER1
 10
19.8729
 20
5.4999
 30
0
 70
     0
  0
VERTEX
  8
LAYER1
 10
19.8668
 20
5.4614
 30
0
 70
     0
  0
VERTEX
  8
LAYER1
 10
19.8564
 20
5.433
 30
0
 70
     0
  0
VERTEX
  8
LAYER1
 10
19.842
 20
5.4149
 30
0
 70
     0
  0
VERTEX
  8
LAYER1
 10
19.8235
 20
5.407
 30
0
 70
     0
  0
VERTEX
  8
LAYER1
 10
19.8008
 20
5.4093
 30
0
 70
     0
  0
VERTEX
  8
LAYER1
 10
19.774
 20
5.4217
 30
0
 70
     0
  0
VERTEX
  8
LAYER1
 10
19.7431
 20
5.4444
 30
0
 70
     0
  0
VERTEX
  8
LAYER1
 10
19.7431
 20
5.4444
 30
0
 70
     0
  0
VERTEX
  8
LAYER1
 10
19.7142
 20
5.4721
 30
0
 70
     0
  0
VERTEX
  8
LAYER1
 10
19.6936
 20
5.4996
 30
0
 70
     0
  0
VERTEX
  8
LAYER1
 10
19.6812
 20
5.5268
 30
0
 70
     0
  0
VERTEX
  8
LAYER1
 10
19.6771
 20
5.5538
 30
0
 70
     0
  0
VERTEX
  8
LAYER1
 10
19.6812
 20
5.5806
 30
0
 70
     0
  0
VERTEX
  8
LAYER1
 10
19.6936
 20
5.6072
 30
0
 70
     0
  0
VERTEX
  8
LAYER1
 10
19.7142
 20
5.6336
 30
0
 70
     0
  0
VERTEX
  8
LAYER1
 10
19.7431
 20
5.6597
 30
0
 70
     0
  0
VERTEX
  8
LAYER1
 10
19.7431
 20
5.6597
 30
0
 70
     0
  0
VERTEX
  8
LAYER1
 10
19.774
 20
5.6808
 30
0
 70
     0
  0
VERTEX
  8
LAYER1
 10
19.8008
 20
5.6918
 30
0
 70
     0
  0
VERTEX
  8
LAYER1
 10
19.8235
 20
5.6929
 30
0
 70
     0
  0
VERTEX
  8
LAYER1
 10
19.842
 20
5.684
 30
0
 70
     0
  0
VERTEX
  8
LAYER1
 10
19.8564
 20
5.6651
 30
0
 70
     0
  0
VERTEX
  8
LAYER1
 10
19.8668
 20
5.6363
 30
0
 70
     0
  0
VERTEX
  8
LAYER1
 10
19.8729
 20
5.5974
 30
0
 70
     0
  0
VERTEX
  8
LAYER1
 10
19.875
 20
5.5486
 30
0
 70
     0
  0
SEQEND
  0
INSERT
  8
LAYER1
  2
Group108
 10
0
 20
0
 30
0
  0
ENDBLK
  8
LAYER1
  0
BLOCK
  8
LAYER1
  2
Group110
 70
     0
 10
0
 20
0
 30
0
  0
CIRCLE
  8
LAYER1
 10
19.7986
 20
3.9792
 30
0
 40
0.1319
  0
CIRCLE
  8
LAYER1
 10
19.7986
 20
3.9792
 30
0
 40
0.1319
  0
ENDBLK
  8
LAYER1
  0
BLOCK
  8
LAYER1
  2
Group111
 70
     0
 10
0
 20
0
 30
0
  0
LINE
  8
LAYER1
  6
CONTINUOUS
 62
     7
 10
19.75
 20
5.5555
 30
0
 11
20
 21
5.5555
 31
0
  0
POLYLINE
  8
LAYER1
  6
CONTINUOUS
 62
     7
 66
     1
 70
     0
 40
0.0039
 41
0.0039
  0
VERTEX
  8
LAYER1
 10
19.7847
 20
3.9861
 30
0
 70
     0
  0
VERTEX
  8
LAYER1
 10
19.8336
 20
3.9882
 30
0
 70
     0
  0
VERTEX
  8
LAYER1
 10
19.8724
 20
3.9944
 30
0
 70
     0
  0
VERTEX
  8
LAYER1
 10
19.9013
 20
4.0046
 30
0
 70
     0
  0
VERTEX
  8
LAYER1
 10
19.9201
 20
4.0191
 30
0
 70
     0
  0
VERTEX
  8
LAYER1
 10
19.929
 20
4.0376
 30
0
 70
     0
  0
VERTEX
  8
LAYER1
 10
19.9279
 20
4.0603
 30
0
 70
     0
  0
VERTEX
  8
LAYER1
 10
19.9169
 20
4.0871
 30
0
 70
     0
  0
VERTEX
  8
LAYER1
 10
19.8958
 20
4.118
 30
0
 70
     0
  0
VERTEX
  8
LAYER1
 10
19.8958
 20
4.118
 30
0
 70
     0
  0
VERTEX
  8
LAYER1
 10
19.8697
 20
4.1469
 30
0
 70
     0
  0
VERTEX
  8
LAYER1
 10
19.8433
 20
4.1675
 30
0
 70
     0
  0
VERTEX
  8
LAYER1
 10
19.8167
 20
4.1799
 30
0
 70
     0
  0
VERTEX
  8
LAYER1
 10
19.7899
 20
4.184
 30
0
 70
     0
  0
VERTEX
  8
LAYER1
 10
19.7629
 20
4.1799
 30
0
 70
     0
  0
VERTEX
  8
LAYER1
 10
19.7357
 20
4.1675
 30
0
 70
     0
  0
VERTEX
  8
LAYER1
 10
19.7082
 20
4.1469
 30
0
 70
     0
  0
VERTEX
  8
LAYER1
 10
19.6806
 20
4.118
 30
0
 70
     0
  0
VERTEX
  8
LAYER1
 10
19.6806
 20
4.118
 30
0
 70
     0
  0
VERTEX
  8
LAYER1
 10
19.6579
 20
4.0871
 30
0
 70
     0
  0
VERTEX
  8
LAYER1
 10
19.6454
 20
4.0603
 30
0
 70
     0
  0
VERTEX
  8
LAYER1
 10
19.6431
 20
4.0376
 30
0
 70
     0
  0
VERTEX
  8
LAYER1
 10
19.651
 20
4.0191
 30
0
 70
     0
  0
VERTEX
  8
LAYER1
 10
19.6692
 20
4.0046
 30
0
 70
     0
  0
VERTEX
  8
LAYER1
 10
19.6975
 20
3.9944
 30
0
 70
     0
  0
VERTEX
  8
LAYER1
 10
19.736
 20
3.9882
 30
0
 70
     0
  0
VERTEX
  8
LAYER1
 10
19.7847
 20
3.9861
 30
0
 70
     0
  0
SEQEND
  0
INSERT
  8
LAYER1
  2
Group110
 10
0
 20
0
 30
0
  0
ENDBLK
  8
LAYER1
  0
BLOCK
  8
LAYER1
  2
Group112
 70
     0
 10
0
 20
0
 30
0
  0
LINE
  8
LAYER1
  6
CONTINUOUS
 62
     7
 10
19.6667
 20
3.9861
 30
0
 11
19.9167
 21
3.9861
 31
0
  0
CIRCLE
  8
LAYER1
 10
28.2847
 20
8.368
 30
0
 40
0.0625
  0
LINE
  8
LAYER1
  6
CONTINUOUS
 62
     7
 10
28.4028
 20
8.375
 30
0
 11
28.1528
 21
8.375
 31
0
  0
ENDBLK
  8
LAYER1
  0
BLOCK
  8
LAYER1
  2
Group113
 70
     0
 10
0
 20
0
 30
0
  0
LINE
  8
LAYER1
  6
CONTINUOUS
 62
     7
 10
28.2778
 20
8.4861
 30
0
 11
28.2778
 21
8.2778
 31
0
  0
CIRCLE
  8
LAYER1
 10
28.2847
 20
6.618
 30
0
 40
0.0625
  0
LINE
  8
LAYER1
  6
CONTINUOUS
 62
     7
 10
28.4028
 20
6.625
 30
0
 11
28.1528
 21
6.625
 31
0
  0
ENDBLK
  8
LAYER1
  0
BLOCK
  8
LAYER1
  2
Group114
 70
     0
 10
0
 20
0
 30
0
  0
LINE
  8
LAYER1
  6
CONTINUOUS
 62
     7
 10
28.2778
 20
6.5278
 30
0
 11
28.2778
 21
6.7361
 31
0
  0
CIRCLE
  8
LAYER1
 10
28.3125
 20
10.118
 30
0
 40
0.0625
  0
LINE
  8
LAYER1
  6
CONTINUOUS
 62
     7
 10
28.4306
 20
10.125
 30
0
 11
28.1806
 21
10.125
 31
0
  0
ENDBLK
  8
LAYER1
  0
BLOCK
  8
LAYER1
  2
Group115
 70
     0
 10
0
 20
0
 30
0
  0
LINE
  8
LAYER1
  6
CONTINUOUS
 62
     7
 10
28.3056
 20
10.0278
 30
0
 11
28.3056
 21
10.2361
 31
0
  0
CIRCLE
  8
LAYER1
 10
28.2986
 20
3.1042
 30
0
 40
0.0625
  0
LINE
  8
LAYER1
  6
CONTINUOUS
 62
     7
 10
28.4167
 20
3.1111
 30
0
 11
28.1667
 21
3.1111
 31
0
  0
ENDBLK
  8
LAYER1
  0
BLOCK
  8
LAYER1
  2
Group116
 70
     0
 10
0
 20
0
 30
0
  0
LINE
  8
LAYER1
  6
CONTINUOUS
 62
     7
 10
28.2917
 20
3
 30
0
 11
28.2917
 21
3.2083
 31
0
  0
CIRCLE
  8
LAYER1
 10
28.3264
 20
1.3542
 30
0
 40
0.0625
  0
LINE
  8
LAYER1
  6
CONTINUOUS
 62
     7
 10
28.1944
 20
1.3611
 30
0
 11
28.4444
 21
1.3611
 31
0
  0
ENDBLK
  8
LAYER1
  0
BLOCK
  8
LAYER1
  2
Group117
 70
     0
 10
0
 20
0
 30
0
  0
LINE
  8
LAYER1
  6
CONTINUOUS
 62
     7
 10
28.3194
 20
1.25
 30
0
 11
28.3194
 21
1.4583
 31
0
  0
CIRCLE
  8
LAYER1
 10
28.3125
 20
4.8542
 30
0
 40
0.0625
  0
LINE
  8
LAYER1
  6
CONTINUOUS
 62
     7
 10
28.1806
 20
4.8611
 30
0
 11
28.4306
 21
4.8611
 31
0
  0
ENDBLK
  8
LAYER1
  0
BLOCK
  8
LAYER1
  2
Group118
 70
     0
 10
0
 20
0
 30
0
  0
LINE
  8
LAYER1
  6
CONTINUOUS
 62
     7
 10
28.3056
 20
4.75
 30
0
 11
28.3056
 21
4.9583
 31
0
  0
LINE
  8
LAYER1
  6
CONTINUOUS
 62
     7
 10
2.5972
 20
10.4028
 30
0
 11
2.3611
 21
9.3055
 31
0
  0
SOLID
  8
LAYER1
 62
     7
 10
2.5972
 20
9.4444
 30
0
 11
2.3611
 21
9.3055
 31
0
 12
2.5972
 22
10.4028
 32
0
 13
2.5972
 23
10.4028
 33
0
  0
POLYLINE
  8
LAYER1
  6
CONTINUOUS
 62
     7
 66
     1
 70
     0
 40
0.0039
 41
0.0039
  0
VERTEX
  8
LAYER1
 10
2.3611
 20
9.3055
 30
0
 70
     0
  0
VERTEX
  8
LAYER1
 10
2.3611
 20
9.3194
 30
0
 70
     0
  0
VERTEX
  8
LAYER1
 10
2.375
 20
9.3472
 30
0
 70
     0
  0
VERTEX
  8
LAYER1
 10
2.3889
 20
9.375
 30
0
 70
     0
  0
VERTEX
  8
LAYER1
 10
2.4028
 20
9.3889
 30
0
 70
     0
  0
VERTEX
  8
LAYER1
 10
2.4306
 20
9.4028
 30
0
 70
     0
  0
VERTEX
  8
LAYER1
 10
2.4583
 20
9.4167
 30
0
 70
     0
  0
VERTEX
  8
LAYER1
 10
2.4861
 20
9.4305
 30
0
 70
     0
  0
VERTEX
  8
LAYER1
 10
2.5278
 20
9.4444
 30
0
 70
     0
  0
VERTEX
  8
LAYER1
 10
2.5694
 20
9.4444
 30
0
 70
     0
  0
VERTEX
  8
LAYER1
 10
2.5972
 20
9.4444
 30
0
 70
     0
  0
VERTEX
  8
LAYER1
 10
2.625
 20
9.4444
 30
0
 70
     0
  0
VERTEX
  8
LAYER1
 10
2.6667
 20
9.4444
 30
0
 70
     0
  0
VERTEX
  8
LAYER1
 10
2.7083
 20
9.4305
 30
0
 70
     0
  0
VERTEX
  8
LAYER1
 10
2.75
 20
9.4167
 30
0
 70
     0
  0
VERTEX
  8
LAYER1
 10
2.7778
 20
9.4028
 30
0
 70
     0
  0
VERTEX
  8
LAYER1
 10
2.7917
 20
9.3889
 30
0
 70
     0
  0
VERTEX
  8
LAYER1
 10
2.8194
 20
9.3611
 30
0
 70
     0
  0
VERTEX
  8
LAYER1
 10
2.8333
 20
9.3333
 30
0
 70
     0
  0
VERTEX
  8
LAYER1
 10
2.8472
 20
9.2917
 30
0
 70
     0
  0
VERTEX
  8
LAYER1
 10
2.8472
 20
9.2778
 30
0
 70
     0
  0
VERTEX
  8
LAYER1
 10
2.8472
 20
9.2639
 30
0
 70
     0
  0
VERTEX
  8
LAYER1
 10
2.8333
 20
9.2222
 30
0
 70
     0
  0
VERTEX
  8
LAYER1
 10
2.8194
 20
9.1944
 30
0
 70
     0
  0
VERTEX
  8
LAYER1
 10
2.8056
 20
9.1805
 30
0
 70
     0
  0
VERTEX
  8
LAYER1
 10
2.7778
 20
9.1667
 30
0
 70
     0
  0
VERTEX
  8
LAYER1
 10
2.7639
 20
9.1528
 30
0
 70
     0
  0
VERTEX
  8
LAYER1
 10
2.7083
 20
9.125
 30
0
 70
     0
  0
VERTEX
  8
LAYER1
 10
2.6667
 20
9.1111
 30
0
 70
     0
  0
VERTEX
  8
LAYER1
 10
2.625
 20
9.1111
 30
0
 70
     0
  0
VERTEX
  8
LAYER1
 10
2.5972
 20
9.1111
 30
0
 70
     0
  0
VERTEX
  8
LAYER1
 10
2.5833
 20
9.1111
 30
0
 70
     0
  0
VERTEX
  8
LAYER1
 10
2.5417
 20
9.1111
 30
0
 70
     0
  0
VERTEX
  8
LAYER1
 10
2.5
 20
9.125
 30
0
 70
     0
  0
VERTEX
  8
LAYER1
 10
2.4722
 20
9.1389
 30
0
 70
     0
  0
VERTEX
  8
LAYER1
 10
2.4444
 20
9.1528
 30
0
 70
     0
  0
VERTEX
  8
LAYER1
 10
2.5972
 20
9.2778
 30
0
 70
     0
  0
VERTEX
  8
LAYER1
 10
2.3611
 20
9.3055
 30
0
 70
     0
  0
SEQEND
  0
LINE
  8
LAYER1
  6
CONTINUOUS
 62
     7
 10
2.5972
 20
9.2778
 30
0
 11
2.5972
 21
8.3194
 31
0
  0
POLYLINE
  8
LAYER1
  6
CONTINUOUS
 62
     7
 66
     1
 70
     0
 40
0
 41
0
  0
VERTEX
  8
LAYER1
 10
2.4583
 20
9.0278
 30
0
 70
     0
  0
VERTEX
  8
LAYER1
 10
2.7083
 20
9.0278
 30
0
 70
     0
  0
VERTEX
  8
LAYER1
 10
2.7083
 20
8.625
 30
0
 70
     0
  0
VERTEX
  8
LAYER1
 10
2.4583
 20
8.625
 30
0
 70
     0
  0
VERTEX
  8
LAYER1
 10
2.4583
 20
9.0278
 30
0
 70
     0
  0
SEQEND
  0
TEXT
  8
LAYER1
 62
     7
 10
2.4668
 20
8.7066
 30
0
 40
0.25
  1
N
 50
0
999
Geneva
  0
ENDBLK
  8
LAYER1
  0
BLOCK
  8
LAYER1
  2
Group119
 70
     0
 10
0
 20
0
 30
0
  0
LINE
  8
LAYER1
  6
CONTINUOUS
 62
     7
 10
3.6111
 20
10.4028
 30
0
 11
3.3611
 21
9.3055
 31
0
  0
POLYLINE
  8
LAYER1
  6
CONTINUOUS
 62
     7
 66
     1
 70
     0
 40
0.0039
 41
0.0039
  0
VERTEX
  8
LAYER1
 10
3.3611
 20
9.3055
 30
0
 70
     0
  0
VERTEX
  8
LAYER1
 10
3.6111
 20
10.4028
 30
0
 70
     0
  0
VERTEX
  8
LAYER1
 10
3.6111
 20
9.4444
 30
0
 70
     0
  0
VERTEX
  8
LAYER1
 10
3.3611
 20
9.3055
 30
0
 70
     0
  0
SEQEND
  0
POLYLINE
  8
LAYER1
  6
CONTINUOUS
 62
     7
 66
     1
 70
     0
 40
0.0039
 41
0.0039
  0
VERTEX
  8
LAYER1
 10
3.3611
 20
9.3055
 30
0
 70
     0
  0
VERTEX
  8
LAYER1
 10
3.3611
 20
9.3194
 30
0
 70
     0
  0
VERTEX
  8
LAYER1
 10
3.375
 20
9.3333
 30
0
 70
     0
  0
VERTEX
  8
LAYER1
 10
3.3889
 20
9.3611
 30
0
 70
     0
  0
VERTEX
  8
LAYER1
 10
3.4167
 20
9.3889
 30
0
 70
     0
  0
VERTEX
  8
LAYER1
 10
3.4306
 20
9.4028
 30
0
 70
     0
  0
VERTEX
  8
LAYER1
 10
3.4583
 20
9.4167
 30
0
 70
     0
  0
VERTEX
  8
LAYER1
 10
3.5
 20
9.4305
 30
0
 70
     0
  0
VERTEX
  8
LAYER1
 10
3.5417
 20
9.4444
 30
0
 70
     0
  0
VERTEX
  8
LAYER1
 10
3.5833
 20
9.4444
 30
0
 70
     0
  0
VERTEX
  8
LAYER1
 10
3.6111
 20
9.4444
 30
0
 70
     0
  0
VERTEX
  8
LAYER1
 10
3.6389
 20
9.4444
 30
0
 70
     0
  0
VERTEX
  8
LAYER1
 10
3.6806
 20
9.4444
 30
0
 70
     0
  0
VERTEX
  8
LAYER1
 10
3.7222
 20
9.4305
 30
0
 70
     0
  0
VERTEX
  8
LAYER1
 10
3.75
 20
9.4167
 30
0
 70
     0
  0
VERTEX
  8
LAYER1
 10
3.7778
 20
9.4028
 30
0
 70
     0
  0
VERTEX
  8
LAYER1
 10
3.8056
 20
9.3889
 30
0
 70
     0
  0
VERTEX
  8
LAYER1
 10
3.8194
 20
9.3611
 30
0
 70
     0
  0
VERTEX
  8
LAYER1
 10
3.8472
 20
9.3333
 30
0
 70
     0
  0
VERTEX
  8
LAYER1
 10
3.8611
 20
9.2917
 30
0
 70
     0
  0
VERTEX
  8
LAYER1
 10
3.8611
 20
9.2778
 30
0
 70
     0
  0
VERTEX
  8
LAYER1
 10
3.8611
 20
9.2639
 30
0
 70
     0
  0
VERTEX
  8
LAYER1
 10
3.8472
 20
9.2222
 30
0
 70
     0
  0
VERTEX
  8
LAYER1
 10
3.8333
 20
9.2083
 30
0
 70
     0
  0
VERTEX
  8
LAYER1
 10
3.8056
 20
9.1805
 30
0
 70
     0
  0
VERTEX
  8
LAYER1
 10
3.7778
 20
9.1667
 30
0
 70
     0
  0
VERTEX
  8
LAYER1
 10
3.7639
 20
9.1528
 30
0
 70
     0
  0
VERTEX
  8
LAYER1
 10
3.7222
 20
9.125
 30
0
 70
     0
  0
VERTEX
  8
LAYER1
 10
3.6806
 20
9.1111
 30
0
 70
     0
  0
VERTEX
  8
LAYER1
 10
3.6389
 20
9.1111
 30
0
 70
     0
  0
VERTEX
  8
LAYER1
 10
3.6111
 20
9.1111
 30
0
 70
     0
  0
VERTEX
  8
LAYER1
 10
3.5972
 20
9.1111
 30
0
 70
     0
  0
VERTEX
  8
LAYER1
 10
3.5556
 20
9.1111
 30
0
 70
     0
  0
VERTEX
  8
LAYER1
 10
3.5139
 20
9.125
 30
0
 70
     0
  0
VERTEX
  8
LAYER1
 10
3.4861
 20
9.1389
 30
0
 70
     0
  0
VERTEX
  8
LAYER1
 10
3.4583
 20
9.1528
 30
0
 70
     0
  0
VERTEX
  8
LAYER1
 10
3.6111
 20
9.2778
 30
0
 70
     0
  0
VERTEX
  8
LAYER1
 10
3.3611
 20
9.3055
 30
0
 70
     0
  0
SEQEND
  0
LINE
  8
LAYER1
  6
CONTINUOUS
 62
     7
 10
3.6111
 20
9.2778
 30
0
 11
3.6111
 21
8.3194
 31
0
  0
POLYLINE
  8
LAYER1
  6
CONTINUOUS
 62
     7
 66
     1
 70
     0
 40
0
 41
0
  0
VERTEX
  8
LAYER1
 10
3.4722
 20
9.0278
 30
0
 70
     0
  0
VERTEX
  8
LAYER1
 10
3.7222
 20
9.0278
 30
0
 70
     0
  0
VERTEX
  8
LAYER1
 10
3.7222
 20
8.625
 30
0
 70
     0
  0
VERTEX
  8
LAYER1
 10
3.4722
 20
8.625
 30
0
 70
     0
  0
VERTEX
  8
LAYER1
 10
3.4722
 20
9.0278
 30
0
 70
     0
  0
SEQEND
  0
TEXT
  8
LAYER1
 62
     7
 10
3.7138
 20
8.9668
 30
0
 40
0.25
  1
N
 50
-180
999
Geneva
  0
ENDBLK
  8
LAYER1
  0
BLOCK
  8
LAYER1
  2
Group120
 70
     0
 10
0
 20
0
 30
0
  0
TEXT
  8
LAYER1
 62
     7
 10
8.6751
 20
10.5538
 30
0
 40
0.125
  1
General Drawing - Scales
 50
0
999
Geneva
  0
LINE
  8
LAYER1
  6
CONTINUOUS
 62
     7
 10
8.625
 20
10.8194
 30
0
 11
13.1667
 21
10.8194
 31
0
  0
ENDBLK
  8
LAYER1
  0
BLOCK
  8
LAYER1
  2
Group121
 70
     0
 10
0
 20
0
 30
0
  0
TEXT
  8
LAYER1
 62
     7
 10
14.7446
 20
10.5538
 30
0
 40
0.125
  1
General Drawing - Scales/Elevation Flags
 50
0
999
Geneva
  0
LINE
  8
LAYER1
  6
CONTINUOUS
 62
     7
 10
8.6667
 20
10.4583
 30
0
 11
13.2083
 21
10.4583
 31
0
  0
LINE
  8
LAYER1
  6
CONTINUOUS
 62
     7
 10
14.6944
 20
10.8194
 30
0
 11
19.2361
 21
10.8194
 31
0
  0
ENDBLK
  8
LAYER1
  0
BLOCK
  8
LAYER1
  2
Group122
 70
     0
 10
0
 20
0
 30
0
  0
TEXT
  8
LAYER1
 62
     7
 10
23.1751
 20
10.5538
 30
0
 40
0.125
  1
General Drawing - Scales/Elevation Targets
 50
0
999
Geneva
  0
LINE
  8
LAYER1
  6
CONTINUOUS
 62
     7
 10
14.7361
 20
10.4583
 30
0
 11
19.2778
 21
10.4583
 31
0
  0
LINE
  8
LAYER1
  6
CONTINUOUS
 62
     7
 10
23.125
 20
10.8194
 30
0
 11
27.6667
 21
10.8194
 31
0
  0
ENDBLK
  8
LAYER1
  0
BLOCK
  8
LAYER1
  2
Group123
 70
     0
 10
0
 20
0
 30
0
  0
LINE
  8
LAYER1
  6
CONTINUOUS
 62
     7
 10
23.1667
 20
10.4583
 30
0
 11
27.7083
 21
10.4583
 31
0
  0
POLYLINE
  8
LAYER1
  6
CONTINUOUS
 62
     7
 66
     1
 70
     0
 40
0.0039
 41
0.0039
  0
VERTEX
  8
LAYER1
 10
30.9028
 20
10.0555
 30
0
 70
     0
  0
VERTEX
  8
LAYER1
 10
31.4167
 20
10.0555
 30
0
 70
     0
  0
VERTEX
  8
LAYER1
 10
31.4167
 20
9.7917
 30
0
 70
     0
  0
VERTEX
  8
LAYER1
 10
30.9028
 20
9.7917
 30
0
 70
     0
  0
VERTEX
  8
LAYER1
 10
30.9028
 20
10.0555
 30
0
 70
     0
  0
SEQEND
  0
POLYLINE
  8
LAYER1
  6
CONTINUOUS
 62
     7
 66
     1
 70
     0
 40
0.0039
 41
0.0039
  0
VERTEX
  8
LAYER1
 10
31.4028
 20
9.5555
 30
0
 70
     0
  0
VERTEX
  8
LAYER1
 10
31.9167
 20
9.5555
 30
0
 70
     0
  0
VERTEX
  8
LAYER1
 10
31.9167
 20
9.2917
 30
0
 70
     0
  0
VERTEX
  8
LAYER1
 10
31.4028
 20
9.2917
 30
0
 70
     0
  0
VERTEX
  8
LAYER1
 10
31.4028
 20
9.5555
 30
0
 70
     0
  0
SEQEND
  0
POLYLINE
  8
LAYER1
  6
CONTINUOUS
 62
     7
 66
     1
 70
     0
 40
0.0039
 41
0.0039
  0
VERTEX
  8
LAYER1
 10
31.9028
 20
10.0555
 30
0
 70
     0
  0
VERTEX
  8
LAYER1
 10
32.9167
 20
10.0555
 30
0
 70
     0
  0
VERTEX
  8
LAYER1
 10
32.9167
 20
9.7917
 30
0
 70
     0
  0
VERTEX
  8
LAYER1
 10
31.9028
 20
9.7917
 30
0
 70
     0
  0
VERTEX
  8
LAYER1
 10
31.9028
 20
10.0555
 30
0
 70
     0
  0
SEQEND
  0
LINE
  8
LAYER1
  6
CONTINUOUS
 62
     7
 10
31.4028
 20
10.0555
 30
0
 11
31.4028
 21
9.3055
 31
0
  0
LINE
  8
LAYER1
  6
CONTINUOUS
 62
     7
 10
31.9028
 20
9.3055
 30
0
 11
31.9028
 21
10.0555
 31
0
  0
POLYLINE
  8
LAYER1
  6
CONTINUOUS
 62
     7
 66
     1
 70
     0
 40
0.0039
 41
0.0039
  0
VERTEX
  8
LAYER1
 10
32.9028
 20
9.5555
 30
0
 70
     0
  0
VERTEX
  8
LAYER1
 10
33.9167
 20
9.5555
 30
0
 70
     0
  0
VERTEX
  8
LAYER1
 10
33.9167
 20
9.2917
 30
0
 70
     0
  0
VERTEX
  8
LAYER1
 10
32.9028
 20
9.2917
 30
0
 70
     0
  0
VERTEX
  8
LAYER1
 10
32.9028
 20
9.5555
 30
0
 70
     0
  0
SEQEND
  0
TEXT
  8
LAYER1
 62
     7
 10
32.9807
 20
9.6094
 30
0
 40
0.0972
  1
Scale in Feet
 50
0
999
Geneva
  0
LINE
  8
LAYER1
  6
CONTINUOUS
 62
     7
 10
32.9028
 20
9.3055
 30
0
 11
32.9028
 21
10.0555
 31
0
  0
TEXT
  8
LAYER1
 62
     7
 10
30.8557
 20
10.151
 30
0
 40
0.0972
  1
0
 50
0
999
Geneva
  0
TEXT
  8
LAYER1
 62
     7
 10
31.3001
 20
10.1371
 30
0
 40
0.0972
  1
16'
 50
0
999
Geneva
  0
TEXT
  8
LAYER1
 62
     7
 10
31.814
 20
10.1371
 30
0
 40
0.0972
  1
32'
 50
0
999
Geneva
  0
TEXT
  8
LAYER1
 62
     7
 10
32.7862
 20
10.1371
 30
0
 40
0.0972
  1
64'
 50
0
999
Geneva
  0
TEXT
  8
LAYER1
 62
     7
 10
33.7723
 20
10.1371
 30
0
 40
0.0972
  1
96'
 50
0
999
Geneva
  0
TEXT
  8
LAYER1
 62
     7
 10
30.1334
 20
9.7205
 30
0
 40
0.0972
  1
1/32"=1'
 50
0
999
Geneva
  0
ENDBLK
  8
LAYER1
  0
BLOCK
  8
LAYER1
  2
Group124
 70
     0
 10
0
 20
0
 30
0
  0
LINE
  8
LAYER1
  6
CONTINUOUS
 62
     7
 10
33.9028
 20
9.5555
 30
0
 11
33.9028
 21
10.0555
 31
0
  0
POLYLINE
  8
LAYER1
  6
CONTINUOUS
 62
     7
 66
     1
 70
     0
 40
0.0039
 41
0.0039
  0
VERTEX
  8
LAYER1
 10
30.9028
 20
8.3055
 30
0
 70
     0
  0
VERTEX
  8
LAYER1
 10
31.4167
 20
8.3055
 30
0
 70
     0
  0
VERTEX
  8
LAYER1
 10
31.4167
 20
8.0417
 30
0
 70
     0
  0
VERTEX
  8
LAYER1
 10
30.9028
 20
8.0417
 30
0
 70
     0
  0
VERTEX
  8
LAYER1
 10
30.9028
 20
8.3055
 30
0
 70
     0
  0
SEQEND
  0
POLYLINE
  8
LAYER1
  6
CONTINUOUS
 62
     7
 66
     1
 70
     0
 40
0.0039
 41
0.0039
  0
VERTEX
  8
LAYER1
 10
31.4028
 20
7.8055
 30
0
 70
     0
  0
VERTEX
  8
LAYER1
 10
31.9167
 20
7.8055
 30
0
 70
     0
  0
VERTEX
  8
LAYER1
 10
31.9167
 20
7.5417
 30
0
 70
     0
  0
VERTEX
  8
LAYER1
 10
31.4028
 20
7.5417
 30
0
 70
     0
  0
VERTEX
  8
LAYER1
 10
31.4028
 20
7.8055
 30
0
 70
     0
  0
SEQEND
  0
POLYLINE
  8
LAYER1
  6
CONTINUOUS
 62
     7
 66
     1
 70
     0
 40
0.0039
 41
0.0039
  0
VERTEX
  8
LAYER1
 10
31.9028
 20
8.3055
 30
0
 70
     0
  0
VERTEX
  8
LAYER1
 10
32.9167
 20
8.3055
 30
0
 70
     0
  0
VERTEX
  8
LAYER1
 10
32.9167
 20
8.0417
 30
0
 70
     0
  0
VERTEX
  8
LAYER1
 10
31.9028
 20
8.0417
 30
0
 70
     0
  0
VERTEX
  8
LAYER1
 10
31.9028
 20
8.3055
 30
0
 70
     0
  0
SEQEND
  0
LINE
  8
LAYER1
  6
CONTINUOUS
 62
     7
 10
31.4028
 20
8.3055
 30
0
 11
31.4028
 21
7.5555
 31
0
  0
LINE
  8
LAYER1
  6
CONTINUOUS
 62
     7
 10
31.9028
 20
7.5555
 30
0
 11
31.9028
 21
8.3055
 31
0
  0
POLYLINE
  8
LAYER1
  6
CONTINUOUS
 62
     7
 66
     1
 70
     0
 40
0.0039
 41
0.0039
  0
VERTEX
  8
LAYER1
 10
32.9028
 20
7.8055
 30
0
 70
     0
  0
VERTEX
  8
LAYER1
 10
33.9167
 20
7.8055
 30
0
 70
     0
  0
VERTEX
  8
LAYER1
 10
33.9167
 20
7.5417
 30
0
 70
     0
  0
VERTEX
  8
LAYER1
 10
32.9028
 20
7.5417
 30
0
 70
     0
  0
VERTEX
  8
LAYER1
 10
32.9028
 20
7.8055
 30
0
 70
     0
  0
SEQEND
  0
TEXT
  8
LAYER1
 62
     7
 10
32.9807
 20
7.8594
 30
0
 40
0.0972
  1
Scale in Feet
 50
0
999
Geneva
  0
LINE
  8
LAYER1
  6
CONTINUOUS
 62
     7
 10
32.9028
 20
7.5555
 30
0
 11
32.9028
 21
8.3055
 31
0
  0
TEXT
  8
LAYER1
 62
     7
 10
30.8557
 20
8.401
 30
0
 40
0.0972
  1
0
 50
0
999
Geneva
  0
TEXT
  8
LAYER1
 62
     7
 10
31.3418
 20
8.401
 30
0
 40
0.0972
  1
8'
 50
0
999
Geneva
  0
TEXT
  8
LAYER1
 62
     7
 10
31.814
 20
8.401
 30
0
 40
0.0972
  1
16'
 50
0
999
Geneva
  0
TEXT
  8
LAYER1
 62
     7
 10
32.7862
 20
8.401
 30
0
 40
0.0972
  1
32'
 50
0
999
Geneva
  0
TEXT
  8
LAYER1
 62
     7
 10
33.7723
 20
8.401
 30
0
 40
0.0972
  1
48'
 50
0
999
Geneva
  0
TEXT
  8
LAYER1
 62
     7
 10
30.1196
 20
7.9705
 30
0
 40
0.0972
  1
1/16"=1'
 50
0
999
Geneva
  0
ENDBLK
  8
LAYER1
  0
BLOCK
  8
LAYER1
  2
Group125
 70
     0
 10
0
 20
0
 30
0
  0
LINE
  8
LAYER1
  6
CONTINUOUS
 62
     7
 10
33.9028
 20
7.8055
 30
0
 11
33.9028
 21
8.3055
 31
0
  0
POLYLINE
  8
LAYER1
  6
CONTINUOUS
 62
     7
 66
     1
 70
     0
 40
0.0039
 41
0.0039
  0
VERTEX
  8
LAYER1
 10
30.9028
 20
6.5555
 30
0
 70
     0
  0
VERTEX
  8
LAYER1
 10
31.4167
 20
6.5555
 30
0
 70
     0
  0
VERTEX
  8
LAYER1
 10
31.4167
 20
6.2917
 30
0
 70
     0
  0
VERTEX
  8
LAYER1
 10
30.9028
 20
6.2917
 30
0
 70
     0
  0
VERTEX
  8
LAYER1
 10
30.9028
 20
6.5555
 30
0
 70
     0
  0
SEQEND
  0
POLYLINE
  8
LAYER1
  6
CONTINUOUS
 62
     7
 66
     1
 70
     0
 40
0.0039
 41
0.0039
  0
VERTEX
  8
LAYER1
 10
31.4028
 20
6.0555
 30
0
 70
     0
  0
VERTEX
  8
LAYER1
 10
31.9167
 20
6.0555
 30
0
 70
     0
  0
VERTEX
  8
LAYER1
 10
31.9167
 20
5.7917
 30
0
 70
     0
  0
VERTEX
  8
LAYER1
 10
31.4028
 20
5.7917
 30
0
 70
     0
  0
VERTEX
  8
LAYER1
 10
31.4028
 20
6.0555
 30
0
 70
     0
  0
SEQEND
  0
POLYLINE
  8
LAYER1
  6
CONTINUOUS
 62
     7
 66
     1
 70
     0
 40
0.0039
 41
0.0039
  0
VERTEX
  8
LAYER1
 10
31.9028
 20
6.5555
 30
0
 70
     0
  0
VERTEX
  8
LAYER1
 10
32.9167
 20
6.5555
 30
0
 70
     0
  0
VERTEX
  8
LAYER1
 10
32.9167
 20
6.2917
 30
0
 70
     0
  0
VERTEX
  8
LAYER1
 10
31.9028
 20
6.2917
 30
0
 70
     0
  0
VERTEX
  8
LAYER1
 10
31.9028
 20
6.5555
 30
0
 70
     0
  0
SEQEND
  0
LINE
  8
LAYER1
  6
CONTINUOUS
 62
     7
 10
31.4028
 20
6.5555
 30
0
 11
31.4028
 21
5.8055
 31
0
  0
LINE
  8
LAYER1
  6
CONTINUOUS
 62
     7
 10
31.9028
 20
5.8055
 30
0
 11
31.9028
 21
6.5555
 31
0
  0
POLYLINE
  8
LAYER1
  6
CONTINUOUS
 62
     7
 66
     1
 70
     0
 40
0.0039
 41
0.0039
  0
VERTEX
  8
LAYER1
 10
32.9028
 20
6.0555
 30
0
 70
     0
  0
VERTEX
  8
LAYER1
 10
33.9167
 20
6.0555
 30
0
 70
     0
  0
VERTEX
  8
LAYER1
 10
33.9167
 20
5.7917
 30
0
 70
     0
  0
VERTEX
  8
LAYER1
 10
32.9028
 20
5.7917
 30
0
 70
     0
  0
VERTEX
  8
LAYER1
 10
32.9028
 20
6.0555
 30
0
 70
     0
  0
SEQEND
  0
TEXT
  8
LAYER1
 62
     7
 10
32.9807
 20
6.1094
 30
0
 40
0.0972
  1
Scale in Feet
 50
0
999
Geneva
  0
LINE
  8
LAYER1
  6
CONTINUOUS
 62
     7
 10
32.9028
 20
5.8055
 30
0
 11
32.9028
 21
6.5555
 31
0
  0
TEXT
  8
LAYER1
 62
     7
 10
30.8557
 20
6.651
 30
0
 40
0.0972
  1
0
 50
0
999
Geneva
  0
TEXT
  8
LAYER1
 62
     7
 10
31.3418
 20
6.651
 30
0
 40
0.0972
  1
4'
 50
0
999
Geneva
  0
TEXT
  8
LAYER1
 62
     7
 10
31.8696
 20
6.651
 30
0
 40
0.0972
  1
8'
 50
0
999
Geneva
  0
TEXT
  8
LAYER1
 62
     7
 10
32.7862
 20
6.651
 30
0
 40
0.0972
  1
16'
 50
0
999
Geneva
  0
TEXT
  8
LAYER1
 62
     7
 10
33.7723
 20
6.651
 30
0
 40
0.0972
  1
24'
 50
0
999
Geneva
  0
TEXT
  8
LAYER1
 62
     7
 10
30.1334
 20
6.2066
 30
0
 40
0.0972
  1
1/8"=1'
 50
0
999
Geneva
  0
ENDBLK
  8
LAYER1
  0
BLOCK
  8
LAYER1
  2
Group126
 70
     0
 10
0
 20
0
 30
0
  0
LINE
  8
LAYER1
  6
CONTINUOUS
 62
     7
 10
33.9028
 20
6.0555
 30
0
 11
33.9028
 21
6.5555
 31
0
  0
POLYLINE
  8
LAYER1
  6
CONTINUOUS
 62
     7
 66
     1
 70
     0
 40
0.0039
 41
0.0039
  0
VERTEX
  8
LAYER1
 10
30.9028
 20
4.8055
 30
0
 70
     0
  0
VERTEX
  8
LAYER1
 10
31.4167
 20
4.8055
 30
0
 70
     0
  0
VERTEX
  8
LAYER1
 10
31.4167
 20
4.5417
 30
0
 70
     0
  0
VERTEX
  8
LAYER1
 10
30.9028
 20
4.5417
 30
0
 70
     0
  0
VERTEX
  8
LAYER1
 10
30.9028
 20
4.8055
 30
0
 70
     0
  0
SEQEND
  0
POLYLINE
  8
LAYER1
  6
CONTINUOUS
 62
     7
 66
     1
 70
     0
 40
0.0039
 41
0.0039
  0
VERTEX
  8
LAYER1
 10
31.4028
 20
4.3055
 30
0
 70
     0
  0
VERTEX
  8
LAYER1
 10
31.9167
 20
4.3055
 30
0
 70
     0
  0
VERTEX
  8
LAYER1
 10
31.9167
 20
4.0417
 30
0
 70
     0
  0
VERTEX
  8
LAYER1
 10
31.4028
 20
4.0417
 30
0
 70
     0
  0
VERTEX
  8
LAYER1
 10
31.4028
 20
4.3055
 30
0
 70
     0
  0
SEQEND
  0
POLYLINE
  8
LAYER1
  6
CONTINUOUS
 62
     7
 66
     1
 70
     0
 40
0.0039
 41
0.0039
  0
VERTEX
  8
LAYER1
 10
31.9028
 20
4.8055
 30
0
 70
     0
  0
VERTEX
  8
LAYER1
 10
32.9167
 20
4.8055
 30
0
 70
     0
  0
VERTEX
  8
LAYER1
 10
32.9167
 20
4.5417
 30
0
 70
     0
  0
VERTEX
  8
LAYER1
 10
31.9028
 20
4.5417
 30
0
 70
     0
  0
VERTEX
  8
LAYER1
 10
31.9028
 20
4.8055
 30
0
 70
     0
  0
SEQEND
  0
LINE
  8
LAYER1
  6
CONTINUOUS
 62
     7
 10
31.4028
 20
4.8055
 30
0
 11
31.4028
 21
4.0555
 31
0
  0
LINE
  8
LAYER1
  6
CONTINUOUS
 62
     7
 10
31.9028
 20
4.0555
 30
0
 11
31.9028
 21
4.8055
 31
0
  0
POLYLINE
  8
LAYER1
  6
CONTINUOUS
 62
     7
 66
     1
 70
     0
 40
0.0039
 41
0.0039
  0
VERTEX
  8
LAYER1
 10
32.9028
 20
4.3055
 30
0
 70
     0
  0
VERTEX
  8
LAYER1
 10
33.9167
 20
4.3055
 30
0
 70
     0
  0
VERTEX
  8
LAYER1
 10
33.9167
 20
4.0417
 30
0
 70
     0
  0
VERTEX
  8
LAYER1
 10
32.9028
 20
4.0417
 30
0
 70
     0
  0
VERTEX
  8
LAYER1
 10
32.9028
 20
4.3055
 30
0
 70
     0
  0
SEQEND
  0
TEXT
  8
LAYER1
 62
     7
 10
32.9807
 20
4.3594
 30
0
 40
0.0972
  1
Scale in Feet
 50
0
999
Geneva
  0
LINE
  8
LAYER1
  6
CONTINUOUS
 62
     7
 10
32.9028
 20
4.0555
 30
0
 11
32.9028
 21
4.8055
 31
0
  0
TEXT
  8
LAYER1
 62
     7
 10
30.8557
 20
4.901
 30
0
 40
0.0972
  1
0
 50
0
999
Geneva
  0
TEXT
  8
LAYER1
 62
     7
 10
31.3418
 20
4.901
 30
0
 40
0.0972
  1
2'
 50
0
999
Geneva
  0
TEXT
  8
LAYER1
 62
     7
 10
31.8696
 20
4.901
 30
0
 40
0.0972
  1
4'
 50
0
999
Geneva
  0
TEXT
  8
LAYER1
 62
     7
 10
32.8279
 20
4.901
 30
0
 40
0.0972
  1
8'
 50
0
999
Geneva
  0
TEXT
  8
LAYER1
 62
     7
 10
33.7723
 20
4.901
 30
0
 40
0.0972
  1
12'
 50
0
999
Geneva
  0
TEXT
  8
LAYER1
 62
     7
 10
30.1334
 20
4.4566
 30
0
 40
0.0972
  1
1/4"=1'
 50
0
999
Geneva
  0
ENDBLK
  8
LAYER1
  0
BLOCK
  8
LAYER1
  2
Group127
 70
     0
 10
0
 20
0
 30
0
  0
LINE
  8
LAYER1
  6
CONTINUOUS
 62
     7
 10
33.9028
 20
4.3055
 30
0
 11
33.9028
 21
4.8055
 31
0
  0
POLYLINE
  8
LAYER1
  6
CONTINUOUS
 62
     7
 66
     1
 70
     0
 40
0.0039
 41
0.0039
  0
VERTEX
  8
LAYER1
 10
30.9028
 20
3.0555
 30
0
 70
     0
  0
VERTEX
  8
LAYER1
 10
31.4167
 20
3.0555
 30
0
 70
     0
  0
VERTEX
  8
LAYER1
 10
31.4167
 20
2.7917
 30
0
 70
     0
  0
VERTEX
  8
LAYER1
 10
30.9028
 20
2.7917
 30
0
 70
     0
  0
VERTEX
  8
LAYER1
 10
30.9028
 20
3.0555
 30
0
 70
     0
  0
SEQEND
  0
POLYLINE
  8
LAYER1
  6
CONTINUOUS
 62
     7
 66
     1
 70
     0
 40
0.0039
 41
0.0039
  0
VERTEX
  8
LAYER1
 10
31.4028
 20
2.5555
 30
0
 70
     0
  0
VERTEX
  8
LAYER1
 10
31.9167
 20
2.5555
 30
0
 70
     0
  0
VERTEX
  8
LAYER1
 10
31.9167
 20
2.2917
 30
0
 70
     0
  0
VERTEX
  8
LAYER1
 10
31.4028
 20
2.2917
 30
0
 70
     0
  0
VERTEX
  8
LAYER1
 10
31.4028
 20
2.5555
 30
0
 70
     0
  0
SEQEND
  0
POLYLINE
  8
LAYER1
  6
CONTINUOUS
 62
     7
 66
     1
 70
     0
 40
0.0039
 41
0.0039
  0
VERTEX
  8
LAYER1
 10
31.9028
 20
3.0555
 30
0
 70
     0
  0
VERTEX
  8
LAYER1
 10
32.9167
 20
3.0555
 30
0
 70
     0
  0
VERTEX
  8
LAYER1
 10
32.9167
 20
2.7917
 30
0
 70
     0
  0
VERTEX
  8
LAYER1
 10
31.9028
 20
2.7917
 30
0
 70
     0
  0
VERTEX
  8
LAYER1
 10
31.9028
 20
3.0555
 30
0
 70
     0
  0
SEQEND
  0
LINE
  8
LAYER1
  6
CONTINUOUS
 62
     7
 10
31.4028
 20
3.0555
 30
0
 11
31.4028
 21
2.3055
 31
0
  0
LINE
  8
LAYER1
  6
CONTINUOUS
 62
     7
 10
31.9028
 20
2.3055
 30
0
 11
31.9028
 21
3.0555
 31
0
  0
POLYLINE
  8
LAYER1
  6
CONTINUOUS
 62
     7
 66
     1
 70
     0
 40
0.0039
 41
0.0039
  0
VERTEX
  8
LAYER1
 10
32.9028
 20
2.5555
 30
0
 70
     0
  0
VERTEX
  8
LAYER1
 10
33.9167
 20
2.5555
 30
0
 70
     0
  0
VERTEX
  8
LAYER1
 10
33.9167
 20
2.2917
 30
0
 70
     0
  0
VERTEX
  8
LAYER1
 10
32.9028
 20
2.2917
 30
0
 70
     0
  0
VERTEX
  8
LAYER1
 10
32.9028
 20
2.5555
 30
0
 70
     0
  0
SEQEND
  0
TEXT
  8
LAYER1
 62
     7
 10
32.9807
 20
2.6094
 30
0
 40
0.0972
  1
Scale in Feet
 50
0
999
Geneva
  0
LINE
  8
LAYER1
  6
CONTINUOUS
 62
     7
 10
32.9028
 20
2.3055
 30
0
 11
32.9028
 21
3.0555
 31
0
  0
TEXT
  8
LAYER1
 62
     7
 10
30.8557
 20
3.151
 30
0
 40
0.0972
  1
0
 50
0
999
Geneva
  0
TEXT
  8
LAYER1
 62
     7
 10
31.3418
 20
3.151
 30
0
 40
0.0972
  1
1'
 50
0
999
Geneva
  0
TEXT
  8
LAYER1
 62
     7
 10
31.8696
 20
3.151
 30
0
 40
0.0972
  1
2'
 50
0
999
Geneva
  0
TEXT
  8
LAYER1
 62
     7
 10
32.8279
 20
3.151
 30
0
 40
0.0972
  1
4'
 50
0
999
Geneva
  0
TEXT
  8
LAYER1
 62
     7
 10
33.8279
 20
3.151
 30
0
 40
0.0972
  1
6'
 50
0
999
Geneva
  0
TEXT
  8
LAYER1
 62
     7
 10
30.1334
 20
2.7066
 30
0
 40
0.0972
  1
1/2"=1'
 50
0
999
Geneva
  0
ENDBLK
  8
LAYER1
  0
BLOCK
  8
LAYER1
  2
Group128
 70
     0
 10
0
 20
0
 30
0
  0
LINE
  8
LAYER1
  6
CONTINUOUS
 62
     7
 10
33.9028
 20
2.5555
 30
0
 11
33.9028
 21
3.0555
 31
0
  0
POLYLINE
  8
LAYER1
  6
CONTINUOUS
 62
     7
 66
     1
 70
     0
 40
0.0039
 41
0.0039
  0
VERTEX
  8
LAYER1
 10
30.9028
 20
1.5139
 30
0
 70
     0
  0
VERTEX
  8
LAYER1
 10
31.4167
 20
1.5139
 30
0
 70
     0
  0
VERTEX
  8
LAYER1
 10
31.4167
 20
1.25
 30
0
 70
     0
  0
VERTEX
  8
LAYER1
 10
30.9028
 20
1.25
 30
0
 70
     0
  0
VERTEX
  8
LAYER1
 10
30.9028
 20
1.5139
 30
0
 70
     0
  0
SEQEND
  0
POLYLINE
  8
LAYER1
  6
CONTINUOUS
 62
     7
 66
     1
 70
     0
 40
0.0039
 41
0.0039
  0
VERTEX
  8
LAYER1
 10
31.4028
 20
1.0139
 30
0
 70
     0
  0
VERTEX
  8
LAYER1
 10
31.9167
 20
1.0139
 30
0
 70
     0
  0
VERTEX
  8
LAYER1
 10
31.9167
 20
0.75
 30
0
 70
     0
  0
VERTEX
  8
LAYER1
 10
31.4028
 20
0.75
 30
0
 70
     0
  0
VERTEX
  8
LAYER1
 10
31.4028
 20
1.0139
 30
0
 70
     0
  0
SEQEND
  0
POLYLINE
  8
LAYER1
  6
CONTINUOUS
 62
     7
 66
     1
 70
     0
 40
0.0039
 41
0.0039
  0
VERTEX
  8
LAYER1
 10
31.9028
 20
1.5139
 30
0
 70
     0
  0
VERTEX
  8
LAYER1
 10
32.9167
 20
1.5139
 30
0
 70
     0
  0
VERTEX
  8
LAYER1
 10
32.9167
 20
1.25
 30
0
 70
     0
  0
VERTEX
  8
LAYER1
 10
31.9028
 20
1.25
 30
0
 70
     0
  0
VERTEX
  8
LAYER1
 10
31.9028
 20
1.5139
 30
0
 70
     0
  0
SEQEND
  0
LINE
  8
LAYER1
  6
CONTINUOUS
 62
     7
 10
31.4028
 20
1.5139
 30
0
 11
31.4028
 21
0.7639
 31
0
  0
LINE
  8
LAYER1
  6
CONTINUOUS
 62
     7
 10
31.9028
 20
0.7639
 30
0
 11
31.9028
 21
1.5139
 31
0
  0
POLYLINE
  8
LAYER1
  6
CONTINUOUS
 62
     7
 66
     1
 70
     0
 40
0.0039
 41
0.0039
  0
VERTEX
  8
LAYER1
 10
32.9028
 20
1.0139
 30
0
 70
     0
  0
VERTEX
  8
LAYER1
 10
33.9167
 20
1.0139
 30
0
 70
     0
  0
VERTEX
  8
LAYER1
 10
33.9167
 20
0.75
 30
0
 70
     0
  0
VERTEX
  8
LAYER1
 10
32.9028
 20
0.75
 30
0
 70
     0
  0
VERTEX
  8
LAYER1
 10
32.9028
 20
1.0139
 30
0
 70
     0
  0
SEQEND
  0
TEXT
  8
LAYER1
 62
     7
 10
32.9807
 20
1.0677
 30
0
 40
0.0972
  1
Scale in Feet
 50
0
999
Geneva
  0
LINE
  8
LAYER1
  6
CONTINUOUS
 62
     7
 10
32.9028
 20
0.7639
 30
0
 11
32.9028
 21
1.5139
 31
0
  0
TEXT
  8
LAYER1
 62
     7
 10
30.8557
 20
1.6094
 30
0
 40
0.0972
  1
0
 50
0
999
Geneva
  0
TEXT
  8
LAYER1
 62
     7
 10
31.3279
 20
1.6233
 30
0
 40
0.0972
  1
.5'
 50
0
999
Geneva
  0
TEXT
  8
LAYER1
 62
     7
 10
31.8834
 20
1.6233
 30
0
 40
0.0972
  1
1'
 50
0
999
Geneva
  0
TEXT
  8
LAYER1
 62
     7
 10
32.8418
 20
1.6233
 30
0
 40
0.0972
  1
2'
 50
0
999
Geneva
  0
TEXT
  8
LAYER1
 62
     7
 10
33.8418
 20
1.6233
 30
0
 40
0.0972
  1
3'
 50
0
999
Geneva
  0
TEXT
  8
LAYER1
 62
     7
 10
30.314
 20
1.1788
 30
0
 40
0.0972
  1
1"=1'
 50
0
999
Geneva
  0
ENDBLK
  8
LAYER1
  0
BLOCK
  8
LAYER1
  2
Group129
 70
     0
 10
0
 20
0
 30
0
  0
TEXT
  8
LAYER1
 62
     7
 10
29.189
 20
10.5538
 30
0
 40
0.125
  1
General Drawing - Architect Scales
 50
0
999
Geneva
  0
LINE
  8
LAYER1
  6
CONTINUOUS
 62
     7
 10
33.9028
 20
1.0139
 30
0
 11
33.9028
 21
1.5139
 31
0
  0
LINE
  8
LAYER1
  6
CONTINUOUS
 62
     7
 10
29.1528
 20
10.8194
 30
0
 11
33.6944
 21
10.8194
 31
0
  0
ENDBLK
  8
LAYER1
  0
BLOCK
  8
LAYER1
  2
Group130
 70
     0
 10
0
 20
0
 30
0
  0
TEXT
  8
LAYER1
 62
     7
 10
2.8557
 20
0.0816
 30
0
 40
0.1389
  1
- 4-4 -
 50
0
999
Geneva
  0
TEXT
  8
LAYER1
 62
     7
 10
10.9807
 20
0.0955
 30
0
 40
0.1389
  1
- 4-5 -
 50
0
999
Geneva
  0
TEXT
  8
LAYER1
 62
     7
 10
31.7029
 20
0.1233
 30
0
 40
0.1389
  1
- 4-8 -
 50
0
999
Geneva
  0
TEXT
  8
LAYER1
 62
     7
 10
17.2584
 20
0.0816
 30
0
 40
0.1389
  1
- 4-6 -
 50
0
999
Geneva
  0
TEXT
  8
LAYER1
 62
     7
 10
25.5362
 20
0.0955
 30
0
 40
0.1389
  1
- 4-7 -
 50
0
999
Geneva
  0
INSERT
  8
LAYER1
  2
Group1
 10
0
 20
0
 30
0
  0
INSERT
  8
LAYER1
  2
Group2
 10
0
 20
0
 30
0
  0
INSERT
  8
LAYER1
  2
Group4
 10
0
 20
0
 30
0
  0
INSERT
  8
LAYER1
  2
Group6
 10
0
 20
0
 30
0
  0
INSERT
  8
LAYER1
  2
Group7
 10
0
 20
0
 30
0
  0
INSERT
  8
LAYER1
  2
Group9
 10
0
 20
0
 30
0
  0
INSERT
  8
LAYER1
  2
Group11
 10
0
 20
0
 30
0
  0
INSERT
  8
LAYER1
  2
Group14
 10
0
 20
0
 30
0
  0
INSERT
  8
LAYER1
  2
Group17
 10
0
 20
0
 30
0
  0
INSERT
  8
LAYER1
  2
Group19
 10
0
 20
0
 30
0
  0
INSERT
  8
LAYER1
  2
Group21
 10
0
 20
0
 30
0
  0
INSERT
  8
LAYER1
  2
Group23
 10
0
 20
0
 30
0
  0
INSERT
  8
LAYER1
  2
Group24
 10
0
 20
0
 30
0
  0
INSERT
  8
LAYER1
  2
Group25
 10
0
 20
0
 30
0
  0
INSERT
  8
LAYER1
  2
Group26
 10
0
 20
0
 30
0
  0
INSERT
  8
LAYER1
  2
Group27
 10
0
 20
0
 30
0
  0
INSERT
  8
LAYER1
  2
Group28
 10
0
 20
0
 30
0
  0
INSERT
  8
LAYER1
  2
Group29
 10
0
 20
0
 30
0
  0
INSERT
  8
LAYER1
  2
Group30
 10
0
 20
0
 30
0
  0
INSERT
  8
LAYER1
  2
Group32
 10
0
 20
0
 30
0
  0
INSERT
  8
LAYER1
  2
Group34
 10
0
 20
0
 30
0
  0
INSERT
  8
LAYER1
  2
Group36
 10
0
 20
0
 30
0
  0
INSERT
  8
LAYER1
  2
Group37
 10
0
 20
0
 30
0
  0
INSERT
  8
LAYER1
  2
Group38
 10
0
 20
0
 30
0
  0
TEXT
  8
LAYER1
 62
     7
 10
0.2307
 20
8.1927
 30
0
 40
0.0833
  1
Arrow 1 wt
 50
0
999
Geneva
  0
TEXT
  8
LAYER1
 62
     7
 10
0.1751
 20
8.0538
 30
0
 40
0.0833
  1
Arrow, White
 50
0
999
Geneva
  0
TEXT
  8
LAYER1
 62
     7
 10
1.2446
 20
8.1927
 30
0
 40
0.0833
  1
Arrow 1 blk
 50
0
999
Geneva
  0
TEXT
  8
LAYER1
 62
     7
 10
1.2029
 20
8.0538
 30
0
 40
0.0833
  1
Arrow, Black
 50
0
999
Geneva
  0
TEXT
  8
LAYER1
 62
     7
 10
2.2584
 20
8.1927
 30
0
 40
0.0833
  1
Arrow 2 blk
 50
0
999
Geneva
  0
TEXT
  8
LAYER1
 62
     7
 10
2.2168
 20
8.0538
 30
0
 40
0.0833
  1
Arrow, Black
 50
0
999
Geneva
  0
TEXT
  8
LAYER1
 62
     7
 10
3.314
 20
8.1927
 30
0
 40
0.0833
  1
Arrow 2 wt
 50
0
999
Geneva
  0
TEXT
  8
LAYER1
 62
     7
 10
3.2584
 20
8.0538
 30
0
 40
0.0833
  1
Arrow, White
 50
0
999
Geneva
  0
TEXT
  8
LAYER1
 62
     7
 10
0.2168
 20
5.5955
 30
0
 40
0.0833
  1
Arrow 3 blk
 50
0
999
Geneva
  0
TEXT
  8
LAYER1
 62
     7
 10
0.1751
 20
5.4566
 30
0
 40
0.0833
  1
Arrow, Black
 50
0
999
Geneva
  0
TEXT
  8
LAYER1
 62
     7
 10
1.2584
 20
5.5955
 30
0
 40
0.0833
  1
Arrow 3 wt
 50
0
999
Geneva
  0
TEXT
  8
LAYER1
 62
     7
 10
1.2029
 20
5.4566
 30
0
 40
0.0833
  1
Arrow, White
 50
0
999
Geneva
  0
TEXT
  8
LAYER1
 62
     7
 10
2.2723
 20
5.5955
 30
0
 40
0.0833
  1
Arrow 4 wt
 50
0
999
Geneva
  0
TEXT
  8
LAYER1
 62
     7
 10
2.2168
 20
5.4566
 30
0
 40
0.0833
  1
Arrow, White
 50
0
999
Geneva
  0
TEXT
  8
LAYER1
 62
     7
 10
3.3001
 20
5.5955
 30
0
 40
0.0833
  1
Arrow 4 blk
 50
0
999
Geneva
  0
TEXT
  8
LAYER1
 62
     7
 10
3.2584
 20
5.4566
 30
0
 40
0.0833
  1
Arrow, Black
 50
0
999
Geneva
  0
TEXT
  8
LAYER1
 62
     7
 10
4.2862
 20
5.5955
 30
0
 40
0.0833
  1
Arrow 5 blk
 50
0
999
Geneva
  0
TEXT
  8
LAYER1
 62
     7
 10
4.2446
 20
5.4566
 30
0
 40
0.0833
  1
Arrow, Black
 50
0
999
Geneva
  0
TEXT
  8
LAYER1
 62
     7
 10
5.3418
 20
5.5955
 30
0
 40
0.0833
  1
Arrow 5 wt
 50
0
999
Geneva
  0
TEXT
  8
LAYER1
 62
     7
 10
5.2862
 20
5.4566
 30
0
 40
0.0833
  1
Arrow, White
 50
0
999
Geneva
  0
TEXT
  8
LAYER1
 62
     7
 10
0.5918
 20
3.9149
 30
0
 40
0.0833
  1
Arrow 6 strp
 50
0
999
Geneva
  0
TEXT
  8
LAYER1
 62
     7
 10
0.564
 20
3.776
 30
0
 40
0.0833
  1
Arrow, Stripe
 50
0
999
Geneva
  0
TEXT
  8
LAYER1
 62
     7
 10
2.1473
 20
3.9149
 30
0
 40
0.0833
  1
Arrow 6 wt
 50
0
999
Geneva
  0
TEXT
  8
LAYER1
 62
     7
 10
2.0918
 20
3.776
 30
0
 40
0.0833
  1
Arrow, White
 50
0
999
Geneva
  0
TEXT
  8
LAYER1
 62
     7
 10
3.6334
 20
3.9149
 30
0
 40
0.0833
  1
Arrow 6 blk
 50
0
999
Geneva
  0
TEXT
  8
LAYER1
 62
     7
 10
3.5918
 20
3.776
 30
0
 40
0.0833
  1
Arrow, Black
 50
0
999
Geneva
  0
TEXT
  8
LAYER1
 62
     7
 10
4.9251
 20
3.9149
 30
0
 40
0.0833
  1
Arrow 7 White
 50
0
999
Geneva
  0
TEXT
  8
LAYER1
 62
     7
 10
4.9668
 20
3.776
 30
0
 40
0.0833
  1
Arrow, White
 50
0
999
Geneva
  0
TEXT
  8
LAYER1
 62
     7
 10
3.6334
 20
2.5121
 30
0
 40
0.0833
  1
Arrow 8 blk
 50
0
999
Geneva
  0
TEXT
  8
LAYER1
 62
     7
 10
3.5918
 20
2.3733
 30
0
 40
0.0833
  1
Arrow, Black
 50
0
999
Geneva
  0
TEXT
  8
LAYER1
 62
     7
 10
0.5918
 20
2.5121
 30
0
 40
0.0833
  1
Arrow 8 strp
 50
0
999
Geneva
  0
TEXT
  8
LAYER1
 62
     7
 10
0.564
 20
2.3733
 30
0
 40
0.0833
  1
Arrow, Stripe
 50
0
999
Geneva
  0
TEXT
  8
LAYER1
 62
     7
 10
2.1473
 20
2.5121
 30
0
 40
0.0833
  1
Arrow 8 wt
 50
0
999
Geneva
  0
TEXT
  8
LAYER1
 62
     7
 10
2.0918
 20
2.3733
 30
0
 40
0.0833
  1
Arrow, White
 50
0
999
Geneva
  0
TEXT
  8
LAYER1
 62
     7
 10
4.9668
 20
2.1094
 30
0
 40
0.0833
  1
Arrow 7 strp
 50
0
999
Geneva
  0
TEXT
  8
LAYER1
 62
     7
 10
4.939
 20
1.9705
 30
0
 40
0.0833
  1
Arrow, Stripe
 50
0
999
Geneva
  0
TEXT
  8
LAYER1
 62
     7
 10
0.5779
 20
1.1233
 30
0
 40
0.0833
  1
Arrow 9 strp
 50
0
999
Geneva
  0
TEXT
  8
LAYER1
 62
     7
 10
0.5501
 20
0.9844
 30
0
 40
0.0833
  1
Arrow, Stripe
 50
0
999
Geneva
  0
TEXT
  8
LAYER1
 62
     7
 10
2.1334
 20
1.1233
 30
0
 40
0.0833
  1
Arrow 9 wt
 50
0
999
Geneva
  0
TEXT
  8
LAYER1
 62
     7
 10
2.0779
 20
0.9844
 30
0
 40
0.0833
  1
Arrow, White
 50
0
999
Geneva
  0
TEXT
  8
LAYER1
 62
     7
 10
3.6196
 20
1.1233
 30
0
 40
0.0833
  1
Arrow 9 blk
 50
0
999
Geneva
  0
TEXT
  8
LAYER1
 62
     7
 10
3.5779
 20
0.9844
 30
0
 40
0.0833
  1
Arrow, Black
 50
0
999
Geneva
  0
TEXT
  8
LAYER1
 62
     7
 10
5.0779
 20
0.4288
 30
0
 40
0.0833
  1
Arrow 7 blk
 50
0
999
Geneva
  0
TEXT
  8
LAYER1
 62
     7
 10
5.0362
 20
0.2899
 30
0
 40
0.0833
  1
Arrow, Black
 50
0
999
Geneva
  0
TEXT
  8
LAYER1
 62
     7
 10
3.564
 20
0.3733
 30
0
 40
0.0833
  1
Arrow 10 blk
 50
0
999
Geneva
  0
TEXT
  8
LAYER1
 62
     7
 10
3.564
 20
0.2344
 30
0
 40
0.0833
  1
Arrow, Black
 50
0
999
Geneva
  0
TEXT
  8
LAYER1
 62
     7
 10
0.5223
 20
0.3733
 30
0
 40
0.0833
  1
Arrow 10 strp
 50
0
999
Geneva
  0
TEXT
  8
LAYER1
 62
     7
 10
0.5362
 20
0.2344
 30
0
 40
0.0833
  1
Arrow, Stripe
 50
0
999
Geneva
  0
TEXT
  8
LAYER1
 62
     7
 10
2.0779
 20
0.3733
 30
0
 40
0.0833
  1
Arrow 10 wt
 50
0
999
Geneva
  0
TEXT
  8
LAYER1
 62
     7
 10
2.064
 20
0.2344
 30
0
 40
0.0833
  1
Arrow, White
 50
0
999
Geneva
  0
TEXT
  8
LAYER1
 62
     7
 10
9.6196
 20
9.8871
 30
0
 40
0.0833
  1
Scale 1/1-10
 50
0
999
Geneva
  0
TEXT
  8
LAYER1
 62
     7
 10
9.6334
 20
9.7483
 30
0
 40
0.0833
  1
Scale 1"=10'
 50
0
999
Geneva
  0
INSERT
  8
LAYER1
  2
Group40
 10
0
 20
0
 30
0
  0
TEXT
  8
LAYER1
 62
     7
 10
9.6196
 20
9.1094
 30
0
 40
0.0833
  1
Scale 1/1-20
 50
0
999
Geneva
  0
TEXT
  8
LAYER1
 62
     7
 10
9.6334
 20
8.9705
 30
0
 40
0.0833
  1
Scale 1"=20'
 50
0
999
Geneva
  0
INSERT
  8
LAYER1
  2
Group42
 10
0
 20
0
 30
0
  0
TEXT
  8
LAYER1
 62
     7
 10
9.6196
 20
8.3316
 30
0
 40
0.0833
  1
Scale 1/1-30
 50
0
999
Geneva
  0
TEXT
  8
LAYER1
 62
     7
 10
9.6612
 20
8.1927
 30
0
 40
0.0833
  1
Scale 1"=30
 50
0
999
Geneva
  0
INSERT
  8
LAYER1
  2
Group44
 10
0
 20
0
 30
0
  0
TEXT
  8
LAYER1
 62
     7
 10
9.6196
 20
7.5399
 30
0
 40
0.0833
  1
Scale 1/1-40
 50
0
999
Geneva
  0
TEXT
  8
LAYER1
 62
     7
 10
9.6334
 20
7.401
 30
0
 40
0.0833
  1
Scale 1"=40'
 50
0
999
Geneva
  0
INSERT
  8
LAYER1
  2
Group46
 10
0
 20
0
 30
0
  0
TEXT
  8
LAYER1
 62
     7
 10
9.6196
 20
6.7621
 30
0
 40
0.0833
  1
Scale 1/1-50
 50
0
999
Geneva
  0
TEXT
  8
LAYER1
 62
     7
 10
9.6334
 20
6.6233
 30
0
 40
0.0833
  1
Scale 1"=50'
 50
0
999
Geneva
  0
INSERT
  8
LAYER1
  2
Group48
 10
0
 20
0
 30
0
  0
TEXT
  8
LAYER1
 62
     7
 10
9.6196
 20
5.9844
 30
0
 40
0.0833
  1
Scale 1/1-60
 50
0
999
Geneva
  0
TEXT
  8
LAYER1
 62
     7
 10
9.6334
 20
5.8455
 30
0
 40
0.0833
  1
Scale 1"=60'
 50
0
999
Geneva
  0
INSERT
  8
LAYER1
  2
Group50
 10
0
 20
0
 30
0
  0
TEXT
  8
LAYER1
 62
     7
 10
9.6196
 20
5.2066
 30
0
 40
0.0833
  1
Scale 1/1-80
 50
0
999
Geneva
  0
TEXT
  8
LAYER1
 62
     7
 10
9.6334
 20
5.0677
 30
0
 40
0.0833
  1
Scale 1"=80'
 50
0
999
Geneva
  0
INSERT
  8
LAYER1
  2
Group52
 10
0
 20
0
 30
0
  0
TEXT
  8
LAYER1
 62
     7
 10
9.5362
 20
4.4288
 30
0
 40
0.0833
  1
Scale 1/a1-100
 50
0
999
Geneva
  0
TEXT
  8
LAYER1
 62
     7
 10
9.5918
 20
4.2899
 30
0
 40
0.0833
  1
Scale 1"=100'
 50
0
999
Geneva
  0
INSERT
  8
LAYER1
  2
Group54
 10
0
 20
0
 30
0
  0
TEXT
  8
LAYER1
 62
     7
 10
11.1473
 20
4.1094
 30
0
 40
0.0972
  1
400
 50
0
999
Geneva
  0
TEXT
  8
LAYER1
 62
     7
 10
9.5362
 20
3.651
 30
0
 40
0.0833
  1
Scale 1/a1-200
 50
0
999
Geneva
  0
TEXT
  8
LAYER1
 62
     7
 10
9.5918
 20
3.5121
 30
0
 40
0.0833
  1
Scale 1"=200'
 50
0
999
Geneva
  0
INSERT
  8
LAYER1
  2
Group56
 10
0
 20
0
 30
0
  0
TEXT
  8
LAYER1
 62
     7
 10
9.5362
 20
2.8733
 30
0
 40
0.0833
  1
Scale 1/a1-300
 50
0
999
Geneva
  0
TEXT
  8
LAYER1
 62
     7
 10
9.5918
 20
2.7205
 30
0
 40
0.0833
  1
Scale 1"=300'
 50
0
999
Geneva
  0
INSERT
  8
LAYER1
  2
Group58
 10
0
 20
0
 30
0
  0
TEXT
  8
LAYER1
 62
     7
 10
9.5362
 20
2.0816
 30
0
 40
0.0833
  1
Scale 1/a1-400
 50
0
999
Geneva
  0
TEXT
  8
LAYER1
 62
     7
 10
9.5918
 20
1.9427
 30
0
 40
0.0833
  1
Scale 1"=400'
 50
0
999
Geneva
  0
INSERT
  8
LAYER1
  2
Group60
 10
0
 20
0
 30
0
  0
TEXT
  8
LAYER1
 62
     7
 10
9.5362
 20
1.3038
 30
0
 40
0.0833
  1
Scale 1/a1-500
 50
0
999
Geneva
  0
TEXT
  8
LAYER1
 62
     7
 10
9.5918
 20
1.1649
 30
0
 40
0.0833
  1
Scale 1"=500'
 50
0
999
Geneva
  0
INSERT
  8
LAYER1
  2
Group62
 10
0
 20
0
 30
0
  0
TEXT
  8
LAYER1
 62
     7
 10
9.4946
 20
0.526
 30
0
 40
0.0833
  1
Scale 1/b1-1000
 50
0
999
Geneva
  0
TEXT
  8
LAYER1
 62
     7
 10
9.5501
 20
0.3871
 30
0
 40
0.0833
  1
Scale 1"=1000'
 50
0
999
Geneva
  0
INSERT
  8
LAYER1
  2
Group64
 10
0
 20
0
 30
0
  0
TEXT
  8
LAYER1
 62
     7
 10
12.5362
 20
9.8871
 30
0
 40
0.0833
  1
Scale 2/1-10
 50
0
999
Geneva
  0
TEXT
  8
LAYER1
 62
     7
 10
12.5501
 20
9.7483
 30
0
 40
0.0833
  1
Scale 1"=10'
 50
0
999
Geneva
  0
TEXT
  8
LAYER1
 62
     7
 10
12.5362
 20
9.1094
 30
0
 40
0.0833
  1
Scale 2/1-20
 50
0
999
Geneva
  0
TEXT
  8
LAYER1
 62
     7
 10
12.5501
 20
8.9705
 30
0
 40
0.0833
  1
Scale 1"=20'
 50
0
999
Geneva
  0
TEXT
  8
LAYER1
 62
     7
 10
12.5362
 20
8.3316
 30
0
 40
0.0833
  1
Scale 2/1-30
 50
0
999
Geneva
  0
TEXT
  8
LAYER1
 62
     7
 10
12.5779
 20
8.1927
 30
0
 40
0.0833
  1
Scale 1"=30
 50
0
999
Geneva
  0
TEXT
  8
LAYER1
 62
     7
 10
12.5362
 20
7.5399
 30
0
 40
0.0833
  1
Scale 2/1-40
 50
0
999
Geneva
  0
TEXT
  8
LAYER1
 62
     7
 10
12.5501
 20
7.401
 30
0
 40
0.0833
  1
Scale 1"=40'
 50
0
999
Geneva
  0
TEXT
  8
LAYER1
 62
     7
 10
12.5362
 20
6.7621
 30
0
 40
0.0833
  1
Scale 2/1-50
 50
0
999
Geneva
  0
TEXT
  8
LAYER1
 62
     7
 10
12.5501
 20
6.6233
 30
0
 40
0.0833
  1
Scale 1"=50'
 50
0
999
Geneva
  0
TEXT
  8
LAYER1
 62
     7
 10
12.5362
 20
5.9844
 30
0
 40
0.0833
  1
Scale 2/1-60
 50
0
999
Geneva
  0
TEXT
  8
LAYER1
 62
     7
 10
12.5501
 20
5.8455
 30
0
 40
0.0833
  1
Scale 1"=60'
 50
0
999
Geneva
  0
TEXT
  8
LAYER1
 62
     7
 10
12.5362
 20
5.2066
 30
0
 40
0.0833
  1
Scale 2/1-80
 50
0
999
Geneva
  0
TEXT
  8
LAYER1
 62
     7
 10
12.5501
 20
5.0677
 30
0
 40
0.0833
  1
Scale 1"=80'
 50
0
999
Geneva
  0
TEXT
  8
LAYER1
 62
     7
 10
12.4529
 20
4.4288
 30
0
 40
0.0833
  1
Scale 2/a1-100
 50
0
999
Geneva
  0
TEXT
  8
LAYER1
 62
     7
 10
12.5084
 20
4.2899
 30
0
 40
0.0833
  1
Scale 1"=100'
 50
0
999
Geneva
  0
TEXT
  8
LAYER1
 62
     7
 10
12.4529
 20
3.651
 30
0
 40
0.0833
  1
Scale 2/a1-200
 50
0
999
Geneva
  0
TEXT
  8
LAYER1
 62
     7
 10
12.5084
 20
3.5121
 30
0
 40
0.0833
  1
Scale 1"=200'
 50
0
999
Geneva
  0
TEXT
  8
LAYER1
 62
     7
 10
12.4529
 20
2.8733
 30
0
 40
0.0833
  1
Scale 2/a1-300
 50
0
999
Geneva
  0
TEXT
  8
LAYER1
 62
     7
 10
12.5084
 20
2.7205
 30
0
 40
0.0833
  1
Scale 1"=300'
 50
0
999
Geneva
  0
TEXT
  8
LAYER1
 62
     7
 10
12.4529
 20
2.0816
 30
0
 40
0.0833
  1
Scale 2/a1-400
 50
0
999
Geneva
  0
TEXT
  8
LAYER1
 62
     7
 10
12.5084
 20
1.9427
 30
0
 40
0.0833
  1
Scale 1"=400'
 50
0
999
Geneva
  0
TEXT
  8
LAYER1
 62
     7
 10
12.4529
 20
1.3038
 30
0
 40
0.0833
  1
Scale 2/a1-500
 50
0
999
Geneva
  0
TEXT
  8
LAYER1
 62
     7
 10
12.5084
 20
1.1649
 30
0
 40
0.0833
  1
Scale 1"=500'
 50
0
999
Geneva
  0
TEXT
  8
LAYER1
 62
     7
 10
12.4112
 20
0.526
 30
0
 40
0.0833
  1
Scale 2/b1-1000
 50
0
999
Geneva
  0
TEXT
  8
LAYER1
 62
     7
 10
12.4668
 20
0.3871
 30
0
 40
0.0833
  1
Scale 1"=1000'
 50
0
999
Geneva
  0
INSERT
  8
LAYER1
  2
Group66
 10
0
 20
0
 30
0
  0
INSERT
  8
LAYER1
  2
Group68
 10
0
 20
0
 30
0
  0
INSERT
  8
LAYER1
  2
Group70
 10
0
 20
0
 30
0
  0
INSERT
  8
LAYER1
  2
Group72
 10
0
 20
0
 30
0
  0
INSERT
  8
LAYER1
  2
Group74
 10
0
 20
0
 30
0
  0
INSERT
  8
LAYER1
  2
Group76
 10
0
 20
0
 30
0
  0
INSERT
  8
LAYER1
  2
Group78
 10
0
 20
0
 30
0
  0
INSERT
  8
LAYER1
  2
Group80
 10
0
 20
0
 30
0
  0
INSERT
  8
LAYER1
  2
Group82
 10
0
 20
0
 30
0
  0
INSERT
  8
LAYER1
  2
Group84
 10
0
 20
0
 30
0
  0
INSERT
  8
LAYER1
  2
Group86
 10
0
 20
0
 30
0
  0
INSERT
  8
LAYER1
  2
Group88
 10
0
 20
0
 30
0
  0
INSERT
  8
LAYER1
  2
Group90
 10
0
 20
0
 30
0
  0
INSERT
  8
LAYER1
  2
Group91
 10
0
 20
0
 30
0
  0
TEXT
  8
LAYER1
 62
     7
 10
16.8001
 20
9.2066
 30
0
 40
0.0833
  1
Scale 3/1-10
 50
0
999
Geneva
  0
TEXT
  8
LAYER1
 62
     7
 10
16.814
 20
9.0538
 30
0
 40
0.0833
  1
Scale 1"=10'
 50
0
999
Geneva
  0
TEXT
  8
LAYER1
 62
     7
 10
18.6334
 20
8.5677
 30
0
 40
0.0972
  1
60
 50
0
999
Geneva
  0
INSERT
  8
LAYER1
  2
Group92
 10
0
 20
0
 30
0
  0
TEXT
  8
LAYER1
 62
     7
 10
16.8001
 20
7.4566
 30
0
 40
0.0833
  1
Scale 3/1-20
 50
0
999
Geneva
  0
TEXT
  8
LAYER1
 62
     7
 10
16.814
 20
7.3038
 30
0
 40
0.0833
  1
Scale 1"=20'
 50
0
999
Geneva
  0
TEXT
  8
LAYER1
 62
     7
 10
18.6334
 20
6.8177
 30
0
 40
0.0972
  1
90
 50
0
999
Geneva
  0
INSERT
  8
LAYER1
  2
Group93
 10
0
 20
0
 30
0
  0
TEXT
  8
LAYER1
 62
     7
 10
16.8001
 20
5.7066
 30
0
 40
0.0833
  1
Scale 3/1-30
 50
0
999
Geneva
  0
TEXT
  8
LAYER1
 62
     7
 10
16.814
 20
5.5538
 30
0
 40
0.0833
  1
Scale 1"=30'
 50
0
999
Geneva
  0
TEXT
  8
LAYER1
 62
     7
 10
18.6334
 20
5.0677
 30
0
 40
0.0972
  1
80
 50
0
999
Geneva
  0
INSERT
  8
LAYER1
  2
Group94
 10
0
 20
0
 30
0
  0
TEXT
  8
LAYER1
 62
     7
 10
16.8001
 20
3.9566
 30
0
 40
0.0833
  1
Scale 3/1-40
 50
0
999
Geneva
  0
TEXT
  8
LAYER1
 62
     7
 10
16.814
 20
3.8038
 30
0
 40
0.0833
  1
Scale 1"=10'
 50
0
999
Geneva
  0
TEXT
  8
LAYER1
 62
     7
 10
18.5918
 20
3.3177
 30
0
 40
0.0972
  1
150
 50
0
999
Geneva
  0
INSERT
  8
LAYER1
  2
Group95
 10
0
 20
0
 30
0
  0
TEXT
  8
LAYER1
 62
     7
 10
16.8001
 20
2.2066
 30
0
 40
0.0833
  1
Scale 3/1-50
 50
0
999
Geneva
  0
TEXT
  8
LAYER1
 62
     7
 10
16.814
 20
2.0538
 30
0
 40
0.0833
  1
Scale 1"=10'
 50
0
999
Geneva
  0
INSERT
  8
LAYER1
  2
Group96
 10
0
 20
0
 30
0
  0
TEXT
  8
LAYER1
 62
     7
 10
16.8001
 20
0.4566
 30
0
 40
0.0833
  1
Scale 3/1-60
 50
0
999
Geneva
  0
TEXT
  8
LAYER1
 62
     7
 10
16.814
 20
0.3038
 30
0
 40
0.0833
  1
Scale 1"=10'
 50
0
999
Geneva
  0
INSERT
  8
LAYER1
  2
Group97
 10
0
 20
0
 30
0
  0
TEXT
  8
LAYER1
 62
     7
 10
25.064
 20
9.2066
 30
0
 40
0.0833
  1
Scale 3/1-80
 50
0
999
Geneva
  0
TEXT
  8
LAYER1
 62
     7
 10
25.0779
 20
9.0538
 30
0
 40
0.0833
  1
Scale 1"=80'
 50
0
999
Geneva
  0
INSERT
  8
LAYER1
  2
Group98
 10
0
 20
0
 30
0
  0
TEXT
  8
LAYER1
 62
     7
 10
25.0223
 20
7.4566
 30
0
 40
0.0833
  1
Scale 3/1-100
 50
0
999
Geneva
  0
TEXT
  8
LAYER1
 62
     7
 10
25.0362
 20
7.3038
 30
0
 40
0.0833
  1
Scale 1"=100'
 50
0
999
Geneva
  0
INSERT
  8
LAYER1
  2
Group99
 10
0
 20
0
 30
0
  0
TEXT
  8
LAYER1
 62
     7
 10
25.0223
 20
5.7066
 30
0
 40
0.0833
  1
Scale 3/1-200
 50
0
999
Geneva
  0
TEXT
  8
LAYER1
 62
     7
 10
25.0362
 20
5.5538
 30
0
 40
0.0833
  1
Scale 1"=200'
 50
0
999
Geneva
  0
INSERT
  8
LAYER1
  2
Group101
 10
0
 20
0
 30
0
  0
TEXT
  8
LAYER1
 62
     7
 10
25.0223
 20
3.9566
 30
0
 40
0.0833
  1
Scale 3/1-300
 50
0
999
Geneva
  0
TEXT
  8
LAYER1
 62
     7
 10
25.0362
 20
3.8038
 30
0
 40
0.0833
  1
Scale 1"=300'
 50
0
999
Geneva
  0
INSERT
  8
LAYER1
  2
Group103
 10
0
 20
0
 30
0
  0
TEXT
  8
LAYER1
 62
     7
 10
25.0223
 20
2.2066
 30
0
 40
0.0833
  1
Scale 3/1-400
 50
0
999
Geneva
  0
TEXT
  8
LAYER1
 62
     7
 10
25.0362
 20
2.0538
 30
0
 40
0.0833
  1
Scale 1"=400'
 50
0
999
Geneva
  0
INSERT
  8
LAYER1
  2
Group104
 10
0
 20
0
 30
0
  0
TEXT
  8
LAYER1
 62
     7
 10
25.0223
 20
0.4566
 30
0
 40
0.0833
  1
Scale 3/1-500
 50
0
999
Geneva
  0
TEXT
  8
LAYER1
 62
     7
 10
25.0362
 20
0.3038
 30
0
 40
0.0833
  1
Scale 1"=500'
 50
0
999
Geneva
  0
INSERT
  8
LAYER1
  2
Group105
 10
0
 20
0
 30
0
  0
INSERT
  8
LAYER1
  2
Group107
 10
0
 20
0
 30
0
  0
INSERT
  8
LAYER1
  2
Group109
 10
0
 20
0
 30
0
  0
INSERT
  8
LAYER1
  2
Group111
 10
0
 20
0
 30
0
  0
INSERT
  8
LAYER1
  2
Group112
 10
0
 20
0
 30
0
  0
INSERT
  8
LAYER1
  2
Group113
 10
0
 20
0
 30
0
  0
INSERT
  8
LAYER1
  2
Group114
 10
0
 20
0
 30
0
  0
INSERT
  8
LAYER1
  2
Group115
 10
0
 20
0
 30
0
  0
INSERT
  8
LAYER1
  2
Group116
 10
0
 20
0
 30
0
  0
INSERT
  8
LAYER1
  2
Group117
 10
0
 20
0
 30
0
  0
TEXT
  8
LAYER1
 62
     7
 10
19.5918
 20
5.1788
 30
0
 40
0.0833
  1
Flag El. 2
 50
0
999
Geneva
  0
TEXT
  8
LAYER1
 62
     7
 10
19.3834
 20
5.026
 30
0
 40
0.0833
  1
Elevation Flag 2
 50
0
999
Geneva
  0
TEXT
  8
LAYER1
 62
     7
 10
19.5501
 20
3.6649
 30
0
 40
0.0833
  1
Flag El. 2a
 50
0
999
Geneva
  0
TEXT
  8
LAYER1
 62
     7
 10
19.3279
 20
3.5121
 30
0
 40
0.0833
  1
Elevation Flag 2a
 50
0
999
Geneva
  0
TEXT
  8
LAYER1
 62
     7
 10
19.5918
 20
8.651
 30
0
 40
0.0833
  1
Flag El. 1
 50
0
999
Geneva
  0
TEXT
  8
LAYER1
 62
     7
 10
19.3834
 20
8.4983
 30
0
 40
0.0833
  1
Elevation Flag 1
 50
0
999
Geneva
  0
TEXT
  8
LAYER1
 62
     7
 10
19.5501
 20
6.7621
 30
0
 40
0.0833
  1
Flag El. 1a
 50
0
999
Geneva
  0
TEXT
  8
LAYER1
 62
     7
 10
19.314
 20
6.6094
 30
0
 40
0.0833
  1
Elevation Flag 1a
 50
0
999
Geneva
  0
TEXT
  8
LAYER1
 62
     7
 10
27.9668
 20
9.8316
 30
0
 40
0.0833
  1
Target El. 1
 50
0
999
Geneva
  0
TEXT
  8
LAYER1
 62
     7
 10
27.9946
 20
9.6927
 30
0
 40
0.0833
  1
El Target 1
 50
0
999
Geneva
  0
TEXT
  8
LAYER1
 62
     7
 10
27.9668
 20
8.0816
 30
0
 40
0.0833
  1
Target El. 2
 50
0
999
Geneva
  0
TEXT
  8
LAYER1
 62
     7
 10
27.9946
 20
7.9427
 30
0
 40
0.0833
  1
El Target 2
 50
0
999
Geneva
  0
TEXT
  8
LAYER1
 62
     7
 10
27.9668
 20
6.3316
 30
0
 40
0.0833
  1
Target El. 3
 50
0
999
Geneva
  0
TEXT
  8
LAYER1
 62
     7
 10
27.9946
 20
6.1927
 30
0
 40
0.0833
  1
El Target 3
 50
0
999
Geneva
  0
TEXT
  8
LAYER1
 62
     7
 10
27.9668
 20
4.5816
 30
0
 40
0.0833
  1
Target El. 4
 50
0
999
Geneva
  0
TEXT
  8
LAYER1
 62
     7
 10
27.9946
 20
4.4427
 30
0
 40
0.0833
  1
El Target 4
 50
0
999
Geneva
  0
TEXT
  8
LAYER1
 62
     7
 10
27.9668
 20
2.8316
 30
0
 40
0.0833
  1
Target El. 5
 50
0
999
Geneva
  0
TEXT
  8
LAYER1
 62
     7
 10
27.9946
 20
2.6927
 30
0
 40
0.0833
  1
El Target 5
 50
0
999
Geneva
  0
TEXT
  8
LAYER1
 62
     7
 10
27.9668
 20
1.0816
 30
0
 40
0.0833
  1
Target El. 6
 50
0
999
Geneva
  0
TEXT
  8
LAYER1
 62
     7
 10
27.9946
 20
0.9427
 30
0
 40
0.0833
  1
El Target 6
 50
0
999
Geneva
  0
INSERT
  8
LAYER1
  2
Group118
 10
0
 20
0
 30
0
  0
INSERT
  8
LAYER1
  2
Group119
 10
0
 20
0
 30
0
  0
INSERT
  8
LAYER1
  2
Group120
 10
0
 20
0
 30
0
  0
INSERT
  8
LAYER1
  2
Group121
 10
0
 20
0
 30
0
  0
INSERT
  8
LAYER1
  2
Group122
 10
0
 20
0
 30
0
  0
INSERT
  8
LAYER1
  2
Group123
 10
0
 20
0
 30
0
  0
TEXT
  8
LAYER1
 62
     7
 10
31.8696
 20
9.026
 30
0
 40
0.0833
  1
Scale 4-1/32-1
 50
0
999
Geneva
  0
TEXT
  8
LAYER1
 62
     7
 10
31.8834
 20
8.901
 30
0
 40
0.0833
  1
Scale 1/32"=1'
 50
0
999
Geneva
  0
INSERT
  8
LAYER1
  2
Group124
 10
0
 20
0
 30
0
  0
TEXT
  8
LAYER1
 62
     7
 10
31.8696
 20
7.276
 30
0
 40
0.0833
  1
Scale 4-1/16-1
 50
0
999
Geneva
  0
TEXT
  8
LAYER1
 62
     7
 10
31.8834
 20
7.151
 30
0
 40
0.0833
  1
Scale 1/16"=1'
 50
0
999
Geneva
  0
INSERT
  8
LAYER1
  2
Group125
 10
0
 20
0
 30
0
  0
TEXT
  8
LAYER1
 62
     7
 10
31.9112
 20
5.5399
 30
0
 40
0.0833
  1
Scale 4-1/8-1
 50
0
999
Geneva
  0
TEXT
  8
LAYER1
 62
     7
 10
31.9251
 20
5.401
 30
0
 40
0.0833
  1
Scale 1/4"=1'
 50
0
999
Geneva
  0
INSERT
  8
LAYER1
  2
Group126
 10
0
 20
0
 30
0
  0
TEXT
  8
LAYER1
 62
     7
 10
31.8973
 20
3.7899
 30
0
 40
0.0833
  1
Scale 4-1/4-1'
 50
0
999
Geneva
  0
TEXT
  8
LAYER1
 62
     7
 10
31.9251
 20
3.651
 30
0
 40
0.0833
  1
Scale 1/4"=1'
 50
0
999
Geneva
  0
INSERT
  8
LAYER1
  2
Group127
 10
0
 20
0
 30
0
  0
TEXT
  8
LAYER1
 62
     7
 10
31.8973
 20
2.0399
 30
0
 40
0.0833
  1
Scale 4-1/2-1'
 50
0
999
Geneva
  0
TEXT
  8
LAYER1
 62
     7
 10
31.9251
 20
1.8871
 30
0
 40
0.0833
  1
Scale 1/2"=1'
 50
0
999
Geneva
  0
INSERT
  8
LAYER1
  2
Group128
 10
0
 20
0
 30
0
  0
TEXT
  8
LAYER1
 62
     7
 10
31.9946
 20
0.4983
 30
0
 40
0.0833
  1
Scale 4-1-1
 50
0
999
Geneva
  0
TEXT
  8
LAYER1
 62
     7
 10
32.0223
 20
0.3594
 30
0
 40
0.0833
  1
Scale 1"=1'
 50
0
999
Geneva
  0
INSERT
  8
LAYER1
  2
Group129
 10
0
 20
0
 30
0
  0
TEXT
  8
LAYER1
 62
     7
 10
29.1196
 20
0.1094
 30
0
 40
0.0833
  1
Scale 1:1  Printed at 70%
 50
0
999
Geneva
  0
TEXT
  8
LAYER1
 62
     7
 10
14.6612
 20
0.151
 30
0
 40
0.0833
  1
Scale 1:1  Printed at 70%
 50
0
999
Geneva
  0
TEXT
  8
LAYER1
 62
     7
 10
23.0779
 20
0.1233
 30
0
 40
0.0833
  1
Scale 1:1  Printed at 70%
 50
0
999
Geneva
  0
TEXT
  8
LAYER1
 62
     7
 10
27.1057
 20
0.2621
 30
0
 40
0.0833
  1
©1989,1990,1991,1992
 50
0
999
Geneva
  0
TEXT
  8
LAYER1
 62
     7
 10
26.9807
 20
0.0955
 30
0
 40
0.0833
  1
Advanced System Design, Inc.
 50
0
999
Geneva
  0
TEXT
  8
LAYER1
 62
     7
 10
18.4807
 20
0.2621
 30
0
 40
0.0833
  1
©1989,1990,1991,1992
 50
0
999
Geneva
  0
TEXT
  8
LAYER1
 62
     7
 10
18.3557
 20
0.0955
 30
0
 40
0.0833
  1
Advanced System Design, Inc.
 50
0
999
Geneva
  0
TEXT
  8
LAYER1
 62
     7
 10
33.1057
 20
0.2621
 30
0
 40
0.0833
  1
©1989,1990,1991,1992
 50
0
999
Geneva
  0
TEXT
  8
LAYER1
 62
     7
 10
32.9807
 20
0.0955
 30
0
 40
0.0833
  1
Advanced System Design, Inc.
 50
0
999
Geneva
  0
TEXT
  8
LAYER1
 62
     7
 10
0.6751
 20
8.3455
 30
0
 40
0.0833
  1
10600
 50
0
999
Geneva
  0
TEXT
  8
LAYER1
 62
     7
 10
1.7029
 20
8.3455
 30
0
 40
0.0833
  1
10601
 50
0
999
Geneva
  0
TEXT
  8
LAYER1
 62
     7
 10
2.7029
 20
8.3455
 30
0
 40
0.0833
  1
10602
 50
0
999
Geneva
  0
TEXT
  8
LAYER1
 62
     7
 10
3.689
 20
8.3594
 30
0
 40
0.0833
  1
10603
 50
0
999
Geneva
  0
TEXT
  8
LAYER1
 62
     7
 10
0.8001
 20
5.8038
 30
0
 40
0.0833
  1
10604
 50
0
999
Geneva
  0
TEXT
  8
LAYER1
 62
     7
 10
1.7307
 20
5.8038
 30
0
 40
0.0833
  1
10605
 50
0
999
Geneva
  0
TEXT
  8
LAYER1
 62
     7
 10
2.7307
 20
5.8038
 30
0
 40
0.0833
  1
10606
 50
0
999
Geneva
  0
TEXT
  8
LAYER1
 62
     7
 10
3.7446
 20
5.8038
 30
0
 40
0.0833
  1
10607
 50
0
999
Geneva
  0
TEXT
  8
LAYER1
 62
     7
 10
4.7168
 20
5.8038
 30
0
 40
0.0833
  1
10608
 50
0
999
Geneva
  0
TEXT
  8
LAYER1
 62
     7
 10
5.7168
 20
5.8038
 30
0
 40
0.0833
  1
10609
 50
0
999
Geneva
  0
TEXT
  8
LAYER1
 62
     7
 10
1.4251
 20
4.0399
 30
0
 40
0.0833
  1
10610
 50
0
999
Geneva
  0
TEXT
  8
LAYER1
 62
     7
 10
2.8834
 20
4.0399
 30
0
 40
0.0833
  1
10611
 50
0
999
Geneva
  0
TEXT
  8
LAYER1
 62
     7
 10
4.3557
 20
4.0538
 30
0
 40
0.0833
  1
10612
 50
0
999
Geneva
  0
TEXT
  8
LAYER1
 62
     7
 10
1.4251
 20
2.651
 30
0
 40
0.0833
  1
10613
 50
0
999
Geneva
  0
TEXT
  8
LAYER1
 62
     7
 10
2.8418
 20
2.651
 30
0
 40
0.0833
  1
10614
 50
0
999
Geneva
  0
TEXT
  8
LAYER1
 62
     7
 10
4.3418
 20
2.6649
 30
0
 40
0.0833
  1
10615
 50
0
999
Geneva
  0
TEXT
  8
LAYER1
 62
     7
 10
1.4668
 20
1.1233
 30
0
 40
0.0833
  1
10616
 50
0
999
Geneva
  0
TEXT
  8
LAYER1
 62
     7
 10
2.9251
 20
1.1233
 30
0
 40
0.0833
  1
10617
 50
0
999
Geneva
  0
TEXT
  8
LAYER1
 62
     7
 10
4.4112
 20
1.1233
 30
0
 40
0.0833
  1
10618
 50
0
999
Geneva
  0
TEXT
  8
LAYER1
 62
     7
 10
1.4946
 20
0.3594
 30
0
 40
0.0833
  1
10619
 50
0
999
Geneva
  0
TEXT
  8
LAYER1
 62
     7
 10
2.9251
 20
0.3594
 30
0
 40
0.0833
  1
10620
 50
0
999
Geneva
  0
TEXT
  8
LAYER1
 62
     7
 10
4.4529
 20
0.3594
 30
0
 40
0.0833
  1
10621
 50
0
999
Geneva
  0
TEXT
  8
LAYER1
 62
     7
 10
5.9112
 20
3.901
 30
0
 40
0.0833
  1
10622
 50
0
999
Geneva
  0
TEXT
  8
LAYER1
 62
     7
 10
5.9112
 20
2.0955
 30
0
 40
0.0833
  1
10623
 50
0
999
Geneva
  0
TEXT
  8
LAYER1
 62
     7
 10
5.9112
 20
0.4288
 30
0
 40
0.0833
  1
10624
 50
0
999
Geneva
  0
TEXT
  8
LAYER1
 62
     7
 10
10.8834
 20
9.8871
 30
0
 40
0.0833
  1
10900
 50
0
999
Geneva
  0
TEXT
  8
LAYER1
 62
     7
 10
10.8973
 20
9.0955
 30
0
 40
0.0833
  1
10901
 50
0
999
Geneva
  0
TEXT
  8
LAYER1
 62
     7
 10
10.8973
 20
8.3177
 30
0
 40
0.0833
  1
10902
 50
0
999
Geneva
  0
TEXT
  8
LAYER1
 62
     7
 10
10.8973
 20
7.5677
 30
0
 40
0.0833
  1
10903
 50
0
999
Geneva
  0
TEXT
  8
LAYER1
 62
     7
 10
10.8973
 20
6.776
 30
0
 40
0.0833
  1
10904
 50
0
999
Geneva
  0
TEXT
  8
LAYER1
 62
     7
 10
10.8973
 20
5.9844
 30
0
 40
0.0833
  1
10905
 50
0
999
Geneva
  0
TEXT
  8
LAYER1
 62
     7
 10
10.8973
 20
5.2066
 30
0
 40
0.0833
  1
10906
 50
0
999
Geneva
  0
TEXT
  8
LAYER1
 62
     7
 10
10.8973
 20
4.4149
 30
0
 40
0.0833
  1
10907
 50
0
999
Geneva
  0
TEXT
  8
LAYER1
 62
     7
 10
10.9112
 20
3.6371
 30
0
 40
0.0833
  1
10908
 50
0
999
Geneva
  0
TEXT
  8
LAYER1
 62
     7
 10
10.8973
 20
2.8594
 30
0
 40
0.0833
  1
10909
 50
0
999
Geneva
  0
TEXT
  8
LAYER1
 62
     7
 10
10.8973
 20
2.0955
 30
0
 40
0.0833
  1
10910
 50
0
999
Geneva
  0
TEXT
  8
LAYER1
 62
     7
 10
10.8973
 20
1.3038
 30
0
 40
0.0833
  1
10911
 50
0
999
Geneva
  0
TEXT
  8
LAYER1
 62
     7
 10
10.8834
 20
0.4983
 30
0
 40
0.0833
  1
10912
 50
0
999
Geneva
  0
TEXT
  8
LAYER1
 62
     7
 10
13.8279
 20
9.8871
 30
0
 40
0.0833
  1
10913
 50
0
999
Geneva
  0
TEXT
  8
LAYER1
 62
     7
 10
13.8279
 20
9.1094
 30
0
 40
0.0833
  1
10914
 50
0
999
Geneva
  0
TEXT
  8
LAYER1
 62
     7
 10
13.8279
 20
8.3455
 30
0
 40
0.0833
  1
10915
 50
0
999
Geneva
  0
TEXT
  8
LAYER1
 62
     7
 10
13.8279
 20
7.5677
 30
0
 40
0.0833
  1
10916
 50
0
999
Geneva
  0
TEXT
  8
LAYER1
 62
     7
 10
13.8279
 20
6.776
 30
0
 40
0.0833
  1
10917
 50
0
999
Geneva
  0
TEXT
  8
LAYER1
 62
     7
 10
13.8279
 20
5.9983
 30
0
 40
0.0833
  1
10918
 50
0
999
Geneva
  0
TEXT
  8
LAYER1
 62
     7
 10
13.8279
 20
5.2066
 30
0
 40
0.0833
  1
10919
 50
0
999
Geneva
  0
TEXT
  8
LAYER1
 62
     7
 10
13.8279
 20
4.4288
 30
0
 40
0.0833
  1
10920
 50
0
999
Geneva
  0
TEXT
  8
LAYER1
 62
     7
 10
13.814
 20
3.6371
 30
0
 40
0.0833
  1
10921
 50
0
999
Geneva
  0
TEXT
  8
LAYER1
 62
     7
 10
13.8279
 20
2.8455
 30
0
 40
0.0833
  1
10922
 50
0
999
Geneva
  0
TEXT
  8
LAYER1
 62
     7
 10
13.8279
 20
2.0955
 30
0
 40
0.0833
  1
10923
 50
0
999
Geneva
  0
TEXT
  8
LAYER1
 62
     7
 10
13.8279
 20
1.3038
 30
0
 40
0.0833
  1
10924
 50
0
999
Geneva
  0
TEXT
  8
LAYER1
 62
     7
 10
13.8279
 20
0.526
 30
0
 40
0.0833
  1
10925
 50
0
999
Geneva
  0
TEXT
  8
LAYER1
 62
     7
 10
17.8834
 20
9.1927
 30
0
 40
0.0833
  1
10926
 50
0
999
Geneva
  0
TEXT
  8
LAYER1
 62
     7
 10
17.8834
 20
7.4427
 30
0
 40
0.0833
  1
10927
 50
0
999
Geneva
  0
TEXT
  8
LAYER1
 62
     7
 10
17.8973
 20
5.6788
 30
0
 40
0.0833
  1
10928
 50
0
999
Geneva
  0
TEXT
  8
LAYER1
 62
     7
 10
17.8834
 20
3.9427
 30
0
 40
0.0833
  1
10929
 50
0
999
Geneva
  0
TEXT
  8
LAYER1
 62
     7
 10
17.8973
 20
2.2066
 30
0
 40
0.0833
  1
10930
 50
0
999
Geneva
  0
TEXT
  8
LAYER1
 62
     7
 10
17.8973
 20
0.4427
 30
0
 40
0.0833
  1
10931
 50
0
999
Geneva
  0
TEXT
  8
LAYER1
 62
     7
 10
26.1473
 20
9.1927
 30
0
 40
0.0833
  1
10932
 50
0
999
Geneva
  0
TEXT
  8
LAYER1
 62
     7
 10
26.1473
 20
7.4427
 30
0
 40
0.0833
  1
10933
 50
0
999
Geneva
  0
TEXT
  8
LAYER1
 62
     7
 10
26.1196
 20
5.6788
 30
0
 40
0.0833
  1
10934
 50
0
999
Geneva
  0
TEXT
  8
LAYER1
 62
     7
 10
26.0918
 20
3.9566
 30
0
 40
0.0833
  1
10935
 50
0
999
Geneva
  0
TEXT
  8
LAYER1
 62
     7
 10
26.1612
 20
2.2066
 30
0
 40
0.0833
  1
10936
 50
0
999
Geneva
  0
TEXT
  8
LAYER1
 62
     7
 10
26.1334
 20
0.4427
 30
0
 40
0.0833
  1
10937
 50
0
999
Geneva
  0
TEXT
  8
LAYER1
 62
     7
 10
33.0918
 20
9.0399
 30
0
 40
0.0833
  1
10938
 50
0
999
Geneva
  0
TEXT
  8
LAYER1
 62
     7
 10
33.1196
 20
7.276
 30
0
 40
0.0833
  1
10939
 50
0
999
Geneva
  0
TEXT
  8
LAYER1
 62
     7
 10
32.9529
 20
5.4983
 30
0
 40
0.0833
  1
10940
 50
0
999
Geneva
  0
TEXT
  8
LAYER1
 62
     7
 10
32.9946
 20
3.776
 30
0
 40
0.0833
  1
10941
 50
0
999
Geneva
  0
TEXT
  8
LAYER1
 62
     7
 10
33.0084
 20
2.026
 30
0
 40
0.0833
  1
10942
 50
0
999
Geneva
  0
TEXT
  8
LAYER1
 62
     7
 10
32.9807
 20
0.4983
 30
0
 40
0.0833
  1
10943
 50
0
999
Geneva
  0
TEXT
  8
LAYER1
 62
     7
 10
19.6057
 20
8.3455
 30
0
 40
0.0833
  1
11200
 50
0
999
Geneva
  0
TEXT
  8
LAYER1
 62
     7
 10
19.6196
 20
6.4427
 30
0
 40
0.0833
  1
11201
 50
0
999
Geneva
  0
TEXT
  8
LAYER1
 62
     7
 10
19.6612
 20
4.8316
 30
0
 40
0.0833
  1
11202
 50
0
999
Geneva
  0
TEXT
  8
LAYER1
 62
     7
 10
19.5918
 20
3.3594
 30
0
 40
0.0833
  1
11203
 50
0
999
Geneva
  0
TEXT
  8
LAYER1
 62
     7
 10
28.0918
 20
9.526
 30
0
 40
0.0833
  1
11500
 50
0
999
Geneva
  0
TEXT
  8
LAYER1
 62
     7
 10
28.0779
 20
7.7621
 30
0
 40
0.0833
  1
11501
 50
0
999
Geneva
  0
TEXT
  8
LAYER1
 62
     7
 10
28.0918
 20
5.9983
 30
0
 40
0.0833
  1
11502
 50
0
999
Geneva
  0
TEXT
  8
LAYER1
 62
     7
 10
28.1334
 20
4.2621
 30
0
 40
0.0833
  1
11503
 50
0
999
Geneva
  0
TEXT
  8
LAYER1
 62
     7
 10
28.1196
 20
2.4983
 30
0
 40
0.0833
  1
11504
 50
0
999
Geneva
  0
TEXT
  8
LAYER1
 62
     7
 10
28.1196
 20
0.7621
 30
0
 40
0.0833
  1
11505
 50
0
999
Geneva
  0
ENDBLK
  8
LAYER1
  0
ENDSEC
  0
SECTION
  2
ENTITIES
  0
INSERT
  8
LAYER1
  2
Group130
 10
0
 20
0
 30
0
  0
ENDSEC
  0
EOF
